Song name
# A B C D E F G H I J K L M N O P Q R S T U V W X Y Z

Seventh Day Slumber - Missing Pages tab

Seventh Day Slumber 
Missing Pages Lyrics
Album: Finally Awake

Intro/Verse
e--------------------l--------------------l
B-----0-----0---0----l-----0-----0---0----l
G-------0-----0---0--l-------0-----0---0--l
D---------2----------l---------2----------l x3
A---0----------------l---3----------------l 
E--------------------l--------------------l

el--------------------l-----------------0-l
Bl-----0-----0---0----l-----0-----0---3---l
Gl-------0-----0---0--l-------0-----------l
Dl---2-----2----------l---2-----2---------l
Al--------------------l-------------------l
El--------------------l-------------------l

On the outside all we see is clay
That hides the perfect light
But no one really knows the pain inside

I understand how much it hurts
To be the one whoís never seen
The missing pages in a magazine

Chorus 
Am  F  G  E
No one knows you anymore
Youíre lost inside the walls youíve built
No one knows you anymore
A prison deep within your soul
There is One who sees it all
Heíll give you life youíve never dreamed
He can see the pain underneath your skin

Verse
Itís hard to see you fading
Nothing that I do can bring you back
I pray to God that you donít fade away
Your addiction is a symptom of a lost and dying soul
Without Jesus thereís no hope at all

Repeat Chorus 

Bridge
F  G  F  G
Thereís so much more this is not the end
Itís all in your hands donít throw it away
A beautiful life with so much to give
The image of God underneath your skin

Repeat Intro
Repeat Chorus 

Outro
e--------------------l--------------------l
B-----0-----0---0----l-----0-----0---0----l
G-------0-----0---0--l-------0-----0---0--l
D---------2----------l---------2----------l x3
A---0----------------l---3----------------l 
E--------------------l--------------------l

el--------------------l-----------------0-l
Bl-----0-----0---0----l-----0-----0---3---l
Gl-------0-----0---0--l-------0-----------l
Dl---2-----2----------l---2-----2---------l
Al--------------------l-------------------l
El--------------------l-------------------l

The beauty of God underneath your skin (3x)

COMMENTS AND CORRECTIONS ARE WELCOME, THANK YOU!
crispaker.kosa dimpoy69
Tap to rate this tab
# A B C D E F G H I J K L M N O P Q R S T U V W X Y Z