Song name
# A B C D E F G H I J K L M N O P Q R S T U V W X Y Z

Seventh Day Slumber - Surrender tab

Seventh Day Slumber
Surrender
Tabbed by 48893

Tuning Drop C#
1 Eb
2 Bb
3 F#
4 C#
5 Ab
6 C#
_______________________________________

Intro

Gtr 1
Palm mute
 |-----------------------------------|
 |-----------------------------------|
 |-----------------------------------|
 |----4-----4-----4---4-----4-----4--|
 |------5-5---5-5---5---5-5---5-5----|
 |--2--------------------------------|

 |-----------------------------------|
 |-----------------------------------|
 |-----------------------------------|
 |----4-----4-----4---4-----4-----4--|
 |------5-5---5-5---5---5-5---5-5----|
 |--0--------------------------------|
x2
End palm mute

 |------------------------------------------------------------|
 |----7-X-X-7-X-X-7-X-7-X-X-7----7---8-7--7----7---8-7--7--7--|
 |----X-X-X-X-X-X-X-X-X-X-X-X----X---X-X--X----X---X-X--X--X--|
 |----4-X-X-4-X-X-4-X-4-X-X-4----4---5-4--4----4---5-4--4--4--|
 |-----------------------------5---5---------5---5------------|
 |------------------------------------------------------------|

 |---------------------------------------------------------|
 |----7-X-X-7-X-X-7-X-7-X-X-7----7---8-7--7----7---8-7--7--|
 |----X-X-X-X-X-X-X-X-X-X-X-X----X---X-X--X----X---X-X--X--|
 |----4-X-X-4-X-X-4-X-4-X-X-4----4---5-4--4----4---5-4--4--|
 |-----------------------------5---5---------5---5---------|
 |---------------------------------------------------------|

Gtr 2

 |-----------------------------------|
 |-----------------------------------|
 |-----------------------------------|
 |-----------------------------------|
 |-----------------------------------|
 |--2-2-2-2-2-2-2-2-2-2-2-2-2-2-2-2--|

 |-----------------------------------|
 |-----------------------------------|
 |-----------------------------------|
 |-----------------------------------|
 |-----------------------------------|
 |--0-0-0-0-0-0-0-0-0-0-0-0-0-0-0-0--|

x2

 |-----------------------------------|
 |-----------------------------------|
 |-----------------------------------|
 |--2---2-2---2-2---2---2-2---2-2----|
 |--2---2-2---2-2---2---2-2---2-2----|
 |--2---2-2---2-2---2---2-2---2-2----|

 |-----------------------------------|
 |-----------------------------------|
 |-----------------------------------|
 |--0---0-0---0-0---0---0-0---0-0----|
 |--0---0-0---0-0---0---0-0---0-0----|
 |--0---0-0---0-0---0---0-0---0-0----|
                  
          second time ---------------|
                      ---------------|
                      ---------------|
                      --0-0---0-0--0-|
                      --0-0---0-0--0-|
                      --0-0---0-0--0-|

x2
_______________________________________

Verse

Gtr 1

 |------------------------------------------|
 |------------------------------------------|
 |------0----------0----------0----------0--|
 |----5----------7----------9----------7----|
 |--3----------5----------7----------5------|
 |------------------------------------------|  x2

 |--------------------------------------------|
 |-------------7-X-X-7-X-X-7-X-7-X-X-7-X-X-7--|
 |------0------X-X-X-X-X-X-X-X-X-X-X-X-X-X-X--|
 |----5--------4-X-X-4-X-X-4-X-4-X-X-4-X-X-4--|
 |--3-----------------------------------------|
 |--------------------------------------------|

_______________________________________

Chorus

Just the chords
 |---------------------|
 |---------------------|
 |---------------------|
 |--2--5--10--5--2--0--|
 |--2--5--10--5--2--0--|
 |--2--5--10--5--2--0--|   x2

Gtr 1

 |------------------------------------------------------------|
 |----7-X-X-7-X-X-7-X-7-X-X-7----7---8-7--7----7---8-7--7--7--|
 |----X-X-X-X-X-X-X-X-X-X-X-X----X---X-X--X----X---X-X--X--X--|
 |----4-X-X-4-X-X-4-X-4-X-X-4----4---5-4--4----4---5-4--4--4--|
 |-----------------------------5---5---------5---5------------|
 |------------------------------------------------------------|

 |---------------------------------------------------------|
 |----7-X-X-7-X-X-7-X-7-X-X-7----7---8-7--7----7---8-7--7--|
 |----X-X-X-X-X-X-X-X-X-X-X-X----X---X-X--X----X---X-X--X--|
 |----4-X-X-4-X-X-4-X-4-X-X-4----4---5-4--4----4---5-4--4--|
 |-----------------------------5---5---------5---5---------|
 |---------------------------------------------------------|

Gtr 2

 |-----------------------------------|
 |-----------------------------------|
 |-----------------------------------|
 |--2---2-2---2-2---2---2-2---2-2----|
 |--2---2-2---2-2---2---2-2---2-2----|
 |--2---2-2---2-2---2---2-2---2-2----|

 |-----------------------------------|
 |-----------------------------------|
 |-----------------------------------|
 |--0---0-0---0-0---0---0-0---0-0----|
 |--0---0-0---0-0---0---0-0---0-0----|
 |--0---0-0---0-0---0---0-0---0-0----|
                  
          second time ---------------|
                      ---------------|
                      ---------------|
                      --0-0---0-0--0-|
                      --0-0---0-0--0-|
                      --0-0---0-0--0-|

x2

_______________________________________

Last Chorus

Gtr 1

 |--2h3---3---3---3---3---3---3---3----|
 |------3---3---3---3---3---3---3---3--|
 |-------------------------------------|
 |-------------------------------------|
 |-------------------------------------|
 |-------------------------------------|

 |--3h5---3---3---3---5---5---3---3----|
 |------3---3---3---3---3---3---3---3--|
 |-------------------------------------|
 |-------------------------------------|
 |-------------------------------------|
 |-------------------------------------| 

 |--2h3---3---3---3---3---3---3---3----|
 |------3---3---3---3---3---3---3---3--|
 |-------------------------------------|
 |-------------------------------------|
 |-------------------------------------|
 |-------------------------------------|

 |--3h5---3---3---3---5---5---3---3----3--|
 |------3---3---3---3---3---3---3---3-----|
 |----------------------------------------|
 |----------------------------------------|
 |----------------------------------------|
 |----------------------------------------| 


 |--3---|
 |------|
 |------|
 |------|
 |------|
 |------|
Tap to rate this tab
 
# A B C D E F G H I J K L M N O P Q R S T U V W X Y Z