Song name
# A B C D E F G H I J K L M N O P Q R S T U V W X Y Z

Seventh Day Slumber - Famous One tab

-----------------------------------------------------------------------------
			Famous One - Seventh Day Slumber
-----------------------------------------------------------------------------
Tabbed by: Brendan

Tuning: Drop D





Guitar 1:
e|----------------------------------------------|
B|----------------------------------------------|
G|--------------------------------------0-------|
d|-------3--------------------3-----------------|
A|---------0-------5+~----------0-----1---0-0h1-|
D|-0h5-5-----0-0h3------0h5-5-----0-0-----------|





e|----------------------------------------------|
B|----------------------------------------------|
G|--------------------------------------0-------|
d|-------3--------------------3-----------------|
A|---------0-------5+~----------0-----1---0-0h3-|
D|-0h5-5-----0-0h3------0h5-5-----0-0-----------|





e|-------------------------------------------------|
B|-------------------------------------------------|
G|-----------------------------------------0-------|
d|-------3-----------------------3-----------0-0h3-|
A|---------0-------5-0-0-----------0-----1---------|
D|-0h5-5-----0-0h3-------3-3h5-5-----0-0-----------|





e|-------------------------------------------------|
B|-------------------------------------------------|
G|-----------------------------------------0-------|
d|-------3-----------------------3-----------0-0h1-|
A|---------0-------5-0-0-----------0-----1---------|
D|-0h5-5-----0-0h3-------3-3h5-5-----0-0-----------|






Guitar 1:
e|-------------------------------------|
B|-------------------------------------|
G|--3--3--3--3--3--3--3--3--3--3--3--3-|
d|--3--3--3--3--3--3--3--3--3--3--3--3-|
A|--1--1--1--1--1--1--1--1--1--1--1--1-|
D|-------------------------------------|

Guitar 2:
e|-------------------------------------|
B|-------------------------------------|
G|-10-10-10--9--9--9-10-10-10--9/10--5-|
d|-------------------------------------|
A|--9--9--9--8--8--8--9--9--9--8-/9--3-|
D|-------------------------------------|






Guitar 1:
e|-----------------------------------------------------|
B|-----------------------------------------------------|
G|-----------------------------------------------------|
d|-----------------------------------------------------|
A|-0-0----0----0-0-----------0-0----0----0-0-----------|
D|-0-0----0----0-0-----------0-0----0----0-0-----------|

Guitar 2:
e|-----------------------------------------------------|
B|-----------------------------------------------------|
G|---------------------------------------------0-------|
d|-------------------3---------------------------------|
A|-0-0----0----0-------0-----0-0----0----0---1---0-0h1-|
D|-0-0----0----0-0h5-----0h5-0-0----0----0-0-----------|






Guitar 1:
e|-------------------------------------|
B|-------------------------------------|
G|--3--3--3--3--3--3--3--3--3--3--3--3-|
d|--3--3--3--3--3--3--3--3--3--3--3--3-|
A|--1--1--1--1--1--1--1--1--1--1--1--1-|
D|-------------------------------------|

Guitar 2:
e|-------------------------------------|
B|-------------------------------------|
G|-10-10-10--9--9--9-10-10-10--9/10--5-|
d|-------------------------------------|
A|--9--9--9--8--8--8--9--9--9--8-/9--3-|
D|-------------------------------------|






Guitar 1:
e|-----------------------------------------------------|
B|-----------------------------------------------------|
G|-----------------------------------------------------|
d|-----------------------------------------------------|
A|-0-0----0----0-0-----------0-0----0----0-0-----------|
D|-0-0----0----0-0-----------0-0----0----0-0-----------|

Guitar 2:
e|-----------------------------------------------------|
B|-----------------------------------------------------|
G|---------------------------------------------0-------|
d|-------------------3---------------------------------|
A|-0-0----0----0-------0-----0-0----0----0---1---0-0h1-|
D|-0-0----0----0-0h5-----0h5-0-0----0----0-0-----------|






Guitar 1:
e|-----------------------------------------------------|
B|-----------------------------------------------------|
G|-----------------------------------------------------|
d|-----------------------------------------------------|
A|-0-0----0----0-0-----------0-0----0----0-0-----------|
D|-0-0----0----0-0-----------0-0----0----0-0-----------|

Guitar 2:
e|-----------------------------------------------------|
B|-----------------------------------------------------|
G|---------------------------------------------0-------|
d|-------------------3---------------------------------|
A|-0-0----0----0-------0-----0-0----0----0---1---0-0h3-|
D|-0-0----0----0-0h5-----0h5-0-0----0----0-0-----------|









| /  slide up
| \  slide down
| h  hammer-on
| p  pull-off
| ~  vibrato
| +  harmonic
| x  Mute note
=============================================================================
Tap to rate this tab
# A B C D E F G H I J K L M N O P Q R S T U V W X Y Z