Song name
# A B C D E F G H I J K L M N O P Q R S T U V W X Y Z

Seventh Day Slumber - Mighty To Save tab

Seventh Day Slumber
"Mighty To Save"
Drop D

Intro (2x)
E[-------------------------------------------------]
B[-------------------------------------------------]
G[-------------------------------------------------]
D[-0-0---------0-0---------0-0---------0-0---------]
A[-0-0-7/7/4/4-0-0-7/7/4/4-0-0-7/7/4/4-0-0-7/7/4/4-]
D[-0-0---------0-0---------0-0---------0-0---------]
   . .         . .         . .         . .
E[----------------------------------------------------------]
B[----------------------------------------------------------]
G[----------------------------------------------------------]
D[----6/6-----------6/6-------6/6-----------6---0--6---0-6~-]
A[--------7/7-----------7/7-------7/7---------7------7------]
D[----------------------------------------------------------]
      . . . .       . . . .   . . . .       . . .  . . .

Verse 1
"Everyone needs compassion......"

CHORDS
..."The Hope of Nations"… then

E[-------------------------------------]
B[-------------------------------------]
G[-------------------------------------]
D[---0------2---2------0------2---2----]
A[--0--0---2--2---2---0--0---2--2---2--]
D[-0------2----------0------2----------]

Chorus (2x)
E[------------------------------------]
B[------------------------------------]
G[------------------------------------]
D[-7-7-7-7-7-7-7-7-2-2-2-2-2-2-2-2----]
A[-7-7-7-7-7-7-7-7-2-2-2-2-2-2-2-2----]
D[-7-7-7-7-7-7-7-7-2-2-2-2-2-2-2-2----]

E[------x-x-------------------x-x----------]
B[------x-x-------------------x-x----------]
G[------x-x-------------------x-x----------]
D[-0-0--x-x--7-7-7-7-----4-4--x-x--2-2-2-2-]
A[-0-0--x-x--7-7-7-7-----4-4--x-x--2-2-2-2-]
D[-0-0--x-x--7-7-7-7-----4-4--x-x--2-2-2-2-]

Intro
E[-------------------------------------------------]
B[-------------------------------------------------]
G[-------------------------------------------------]
D[-0-0---------0-0---------0-0---------0-0---------]
A[-0-0-7/7/4/4-0-0-7/7/4/4-0-0-7/7/4/4-0-0-7/7/4/4-]
D[-0-0---------0-0---------0-0---------0-0---------]
   . .         . .         . .         . .
E[----------------------------------------------------------]
B[----------------------------------------------------------]
G[----------------------------------------------------------]
D[----6/6-----------6/6-------6/6-----------6---0--6---0-6~-]
A[--------7/7-----------7/7-------7/7---------7------7------]
D[----------------------------------------------------------]
      . . . .       . . . .   . . . .       . . .  . . .

Verse 2
CHORDS

E[-------------------------------------]
B[-------------------------------------]
G[-------------------------------------]
D[---0------2---2------0------2---2----]
A[--0--0---2--2---2---0--0---2--2---2--]
D[-0------2----------0------2----------]

Chorus (2x)
E[------------------------------------]
B[------------------------------------]
G[------------------------------------]
D[-7-7-7-7-7-7-7-7-2-2-2-2-2-2-2-2----]
A[-7-7-7-7-7-7-7-7-2-2-2-2-2-2-2-2----]
D[-7-7-7-7-7-7-7-7-2-2-2-2-2-2-2-2----]

E[------x-x-------------------x-x----------]
B[------x-x-------------------x-x----------]
G[------x-x-------------------x-x----------]
D[-0-0--x-x--7-7-7-7-----4-4--x-x--2-2-2-2-]
A[-0-0--x-x--7-7-7-7-----4-4--x-x--2-2-2-2-]
D[-0-0--x-x--7-7-7-7-----4-4--x-x--2-2-2-2-]

Bridge
"Shine your light, and let the whole world see...." then… 

E[---------------------------------------------------]
B[---------------------------------------------------]
G[---------------------------------------------------]
D[-2-2-2-2-2-2-2-2-----------------2-2-2-2-2-2-2-s/4-]
A[-2-2-2-2-2-2-2-2-----------------2-2-2-2-2-2-2-s/4-]
D[-2-2-2-2-2-2-2-2-----------------2-2-2-2-2-2-2-s/4-]

E[-----------------------------------]
B[-----------------------------------]
G[-----------------------------------]
D[-0-0-0-0-7-7-7-7-2-2-2-2-2-2-2-s/4-]
A[-0-0-0-0-7-7-7-7-2-2-2-2-2-2-2-s/4-]
D[-0-0-0-0-7-7-7-7-2-2-2-2-2-2-2-s/4-]

E[-----------------xx---------xx-----------]
B[-----------------xx---------xx-----------]
G[-----------------xx--14/13~-xx-14/13---~-]
D[-0-0-0-0-7-7-7-7-xx---------xx-----------]
A[-0-0-0-0-7-7-7-7-xx---------xx-----------]
D[-0-0-0-0-0-7-7-7-xx---------xx-----------]

E[------------------------------------]
B[------------------------------------]
G[------------------------------------]
D[-----------------2-2-2-2-2-2-2-2----]
A[-----------------2-2-2-2-2-2-2-2----]
D[-----------------2-2-2-2-2-2-2-2----]

E[------x-x-------------------x-x----------]
B[------x-x-------------------x-x----------]
G[------x-x-------------------x-x----------]
D[-0-0--x-x--7-7-7-7-----4-4--x-x--2-2-2-2-]
A[-0-0--x-x--7-7-7-7-----4-4--x-x--2-2-2-2-]
D[-0-0--x-x--7-7-7-7-----4-4--x-x--2-2-2-2-]

Chorus (2x)
E[------------------------------------]
B[------------------------------------]
G[------------------------------------]
D[-7-7-7-7-7-7-7-7-2-2-2-2-2-2-2-2----]
A[-7-7-7-7-7-7-7-7-2-2-2-2-2-2-2-2----]
D[-7-7-7-7-7-7-7-7-2-2-2-2-2-2-2-2----]

E[------x-x-------------------x-x----------]
B[------x-x-------------------x-x----------]
G[------x-x-------------------x-x----------]
D[-0-0--x-x--7-7-7-7-----4-4--x-x--2-2-2-2-]
A[-0-0--x-x--7-7-7-7-----4-4--x-x--2-2-2-2-]
D[-0-0--x-x--7-7-7-7-----4-4--x-x--2-2-2-2-]

Bridge (2x)
E[-----------------------------------]
B[-----------------------------------]
G[-----------------------------------]
D[-0-0-0-0-7-7-7-7-2-2-2-2-2-2-2-s/4-]
A[-0-0-0-0-7-7-7-7-2-2-2-2-2-2-2-s/4-]
D[-0-0-0-0-7-7-7-7-2-2-2-2-2-2-2-s/4-]

E[-----------------------------------]
B[-----------------------------------]
G[-----------------------------------]
D[-0-0-0-0-7-7-7-7-2-2-2-2-2-2-2-s/4-]
A[-0-0-0-0-7-7-7-7-2-2-2-2-2-2-2-s/4-]
D[-0-0-0-0-7-7-7-7-2-2-2-2-2-2-2-s/4-]

E[-----------------------------------]
B[-----------------------------------]
G[-----------------------------------]
D[-0-0-0-0-7-7-7-7-2-2-2-2-2-2-2-s/4-]
A[-0-0-0-0-7-7-7-7-2-2-2-2-2-2-2-s/4-]
D[-0-0-0-0-7-7-7-7-2-2-2-2-2-2-2-s/4-]

E[-----------------xx---------xx-----------]
B[-----------------xx---------xx-----------]
G[-----------------xx--14/13~-xx-14/13---~-]
D[-0-0-0-0-7-7-7-7-xx---------xx-----------]
A[-0-0-0-0-7-7-7-7-xx---------xx-----------]
D[-0-0-0-0-0-7-7-7-xx---------xx-----------]

E[------]
B[------]
G[------]
D[--0---]
A[--0---]
D[--0---]

Tap to rate this tab
# A B C D E F G H I J K L M N O P Q R S T U V W X Y Z