Song name
# A B C D E F G H I J K L M N O P Q R S T U V W X Y Z

Seventh Day Slumber - Caroline tab

I found that other tabs are wrong, so i decided to post the correct tabs for the 
lead guitar parts.

Created by: Tim Vue

Intro:

 e-10-9--------9h10--10-9----------------------|
 B-------10----------------10------------------|
 G---------------------------------------------|
 D---------------------------------------------|
 A---------------------------------------------|
 E---------------------------------------------|

 e---------------------------------------------|
 B-10-8-7-7h8-7--10-8-7-7h8--7h8---------------|
 G-------------------------9----7--------------|
 D---------------------------------------------|
 A---------------------------------------------|
 E---------------------------------------------|

Chorus:
 e--10-9-------------|
 B-------10----------| i didn't count how many time they play this, but just
 G-------------------| listen & play this riff over & over again during the
 D-------------------| chorus.
 A-------------------|
 E-------------------|
Tap to rate this tab
# A B C D E F G H I J K L M N O P Q R S T U V W X Y Z