Seventh Day Slumber - My Only Hope tab

Song: My Only Hope
Band: Seventh Day Slumber
Tuning: Drop D
My Email: SynysterSixx@gmail.com


 E|----------------------------------|
 B|----------------------------------|
 G|--7-7-7-7-7-7-7-7-7-7-7-7---------|
 D|--6-6-6-6-6-6-6-6-6-6-6-6---------|
 A|--5-5-5-5-5-5-5-5-5-5-5-5-0-0--0--|
 D|--------------------------0-0--0--|  x4
PM                           . .  .


guitar 1
 E|---------------------------------|       E|-----------|
 B|---------------------------------|       B|-----------|
 G|---------------------------------|       G|-----------|
 D|--2-3-2-0-2--2-3-2-0-2--2-3-2-0--|       D|--5~--3~---|
 A|--2-3-2-0-2--2-3-2-0-2--2-3-2-0--|       A|--5~--3~---|
 D|--2-3-2-0-2--2-3-2-0-2--2-3-2-0--|  x3   D|--5~--3~---|
                                                       
Repeat above 2 bars twice


Guitar 1
 E|---------------------------------|      E|-----------|
 B|---------------------------------|      B|-----------|
 G|---------------------------------|      G|-----------|
 D|---------------------------------|      D|-----------|
 A|--2-3-2-0-2--2-3-2-0-2--2-3-2-0--| x3   A|--5~--3~---|
 D|--2-3-2-0-2--2-3-2-0-2--2-3-2-0--|      D|--5~--3~---|


Guitar 2
 E|-------------|
 B|-------------|
 G|-------------|
 D|--2---0---2--|
 A|--2---0---2--|
 D|--2---0---2--|
PM   .   .   .

play above guitar 1 and 2 bars twice

Guitar 1
 E|---------------------------------------|
 B|---------------------------------------|
 G|---------------5-5-5-5--5-5-5-5---5-5--|
 D|--2~--2-5--0---5-5-5-5--5-5-5-5---5-5--|
 A|--2~--2-5--0---3-3-3-3--3-3-3-3---3-3--|
 D|--2~--2-5--0---3-3-3-3--3-3-3-3---3-3--| x2



Guitar 1
 E|----------------------|
 B|----------------------|
 G|----------------------|
 D|--8--10--0~---10--8~--|
 A|--8--10--0~---10--8~--|
 D|--8--10--0~---10--8~--| x4


guitar 1
 E|---------------------------------|       E|-----------|
 B|---------------------------------|       B|-----------|
 G|---------------------------------|       G|-----------|
 D|--2-3-2-0-2--2-3-2-0-2--2-3-2-0--|       D|--5~--3~---|
 A|--2-3-2-0-2--2-3-2-0-2--2-3-2-0--|       A|--5~--3~---|
 D|--2-3-2-0-2--2-3-2-0-2--2-3-2-0--|  x3   D|--5~--3~---|
                                                       
Repeat above 2 bars twice


Guitar 1
 E|---------------------------------|      E|-----------|
 B|---------------------------------|      B|-----------|
 G|---------------------------------|      G|-----------|
 D|---------------------------------|      D|-----------|
 A|--2-3-2-0-2--2-3-2-0-2--2-3-2-0--| x3   A|--5~--3~---|
 D|--2-3-2-0-2--2-3-2-0-2--2-3-2-0--|      D|--5~--3~---|


Guitar 2
 E|-------------|
 B|-------------|
 G|-------------|
 D|--2---0---2--|
 A|--2---0---2--|
 D|--2---0---2--|
PM   .   .   .

play above guitar 1 and 2 bars twice

Guitar 1
 E|---------------------------------------|
 B|---------------------------------------|
 G|---------------5-5-5-5--5-5-5-5---5-5--|
 D|--2~--2-5--0---5-5-5-5--5-5-5-5---5-5--|
 A|--2~--2-5--0---3-3-3-3--3-3-3-3---3-3--|
 D|--2~--2-5--0---3-3-3-3--3-3-3-3---3-3--| x2



Guitar 1
 E|----------------------|
 B|----------------------|
 G|----------------------|
 D|--8--10--0~---10--8~--|
 A|--8--10--0~---10--8~--|
 D|--8--10--0~---10--8~--| x4


Guitar 1
 E|-----------------------------------------------------------------------|
 B|-----------------------------------------------------------------------|
 G|--------10----10--10-----------------------10----10--------------------|
 D|--8h10--10----10--10-----8/10-10-10--8h10--10----10--------------------|
 A|--8--8---8-----8---8-----8/10-10-10--8--8---8-----8----------7---------|
 D|--8--8---8-8-8-8---8-8-8-8/10-10-10--8--8---8-8-8-8--10-8-10---10-8-10-|x2
PM            . .       . .                      . .     . .  .    . .  .

I dont have the solo down yet. but i will soon.
Tap to rate this tab
 
# A B C D E F G H I J K L M N O P Q R S T U V W X Y Z