Song name
# A B C D E F G H I J K L M N O P Q R S T U V W X Y Z

Seventh Day Slumber - Lead Me To The Cross tab

Lead Me To The Cross - Seventh Day Slumber

Tabbed by: BiNaRyFrEaKk
Email: bremenasgarth@gmail.com

Tuning: E A D E A E
Capo 2

This is one of my first tabs to post online. I have done quite a few of my own for 
my personal use but I thought I would share this one online. If you have any 
constructive criticism let me know. God Bless

*Note: Later in the tab i wrote out the forms of some chords i use for this song. 
I don't know their names so in the chord strumming sections of the song i just use 
c1 for chord 1 and c2 for chord 2, ect. Sorry for no exact chord names.*



{ Intro (x2) }
| --------------------------------------------- |
| --------0---------------0-----------0-------- |
| ------0----0----------0-----------0----0----- |
| ----2--------2------2-----------1--------1--- |
| --4---------------4-----------2-------------- |
| --------------------------------------------- |



{ Verse 1 + 2 (x2) }
| -------------------------------------------------------------------------
| --------0---------------0-----------0---------------0-----------0--------
| ------0----0----------0-----------0----0----------0-----------0----0-----
| ----2--------2------2-----------1--------1------1-----------1--------1---
| --4---------------4-----------2---------------2-----------0--------------
| -------------------------------------------------------------------------


| --------------------------------- |
| -------0---------------0--------- |
| -----0----0----------0----0------ |
| ---6--------6------4--------4---- |
| -7------------7--6------------6-- |
| --------------------------------- |



{ Pre-Chorus }
| --------------------------------------------------------------------- |
| -------0---------------0----------------0---------------0------------ |
| -----0----0----------0----0-----------0----0----------0----0--------- |
| ---4--------4------4--------4-------6--------6------4--------4------4 |
| -----------------2----------------7------------7--6------------6----4 |
| -2------------------------------------------------------------------2 |


Chord 1   Chord 2  Chord 3  Chord 4  Chord 5  Chord 6
|-0-|    |-0-|      |-0-|    |-x-|    |-x-|    |-0-|
|-0-|    |-0-|      |-0-|    |-x-|    |-x-|    |-0-|
|-0-|    |-0-|      |-0-|    |-x-|    |-x-|    |-0-|
|-2-|    |-9-|      |-4-|    |-x-|    |-x-|    |-6-|
|-0-|    |-7-|      |-2-|    |-4-|    |-4-|    |-4-|
|-x-|    |-0-|      |-x-|    |-2-|    |-4-|    |-x-|

{ Chorus } 

               c1
Lead me to the cross
           c3           c2
Where Your love poured out
               c1
Bring me to my knees
       c3      c2
Lord I lay me down
            c1 
Rid me of myself
    c3       c2
I belong to You
   c4(h)c5   c1   c2      (Intro riff)  (If going into the bridge, c2)
Lead me, lead me to the cross


{ Bridge }
 c6 c3 c2 c1       c6 c3 c1
Your heart,      Your heart
             c6 c3 c2 c1         c6 c3 c1 
Lead me to your heart,           your heart 

(Pre-Chorus Riff at end of bridge)
Tap to rate this tab
 
# A B C D E F G H I J K L M N O P Q R S T U V W X Y Z