Song name
# A B C D E F G H I J K L M N O P Q R S T U V W X Y Z

Seventh Day Slumber - Missing Pages tab

The song is in an alternate tuning. So I did my best to transpose it into standard
tuning. Please rate and comment :)


Intro & Verse: (x3)                     thenů
------------------------------------|      -----------0------------0---0--|
------------------------------0-----|      ------0------0----4---4--------|
-------0----0---0-------0---4----0--| (x3) ----4-----------3---3-----3----|
-----4----4-----------4---2----2----|      --------3----------------------|
--------2---2-------3---------------|      --3----------------------------|
--0---------------------------------|      -------------------------------|

Chorus:
---------------------------0---|
--0-----------------3------3---|
--2--------0--------0------2---| (x4)
--2--------3--------0------0---|
--0--------3---------------0---|
--------------------3----------|

Then:
Verse 2
Chorus

Bridge:(2:05)         (2:30) {w/minor variations}-↓
--0-----------|       ------------------------0-------------------0--|
--1--------3--|       ------0------0----------------0--------0----3--|
--0--------0--| {x4}  ----4------4-------4--------4--------4---4--2--| (x2)
--3--------0--|       --2------------------3----3--------5--------0--|
--3-----------|       --0------2------3----------------5----------0--|
--1--------3--|       ---------0------1----------------3-------------|

Then:
Chorus
Ending

Enjoy :)
Tap to rate this tab
 
# A B C D E F G H I J K L M N O P Q R S T U V W X Y Z