Guitaretab - guitar tabs
Song name
# A B C D E F G H I J K L M N O P Q R S T U V W X Y Z

Seventh Day Slumber - Shattered Life tab

Intro

Guitar 1
   F						Dm
e|---------1-----------1-----1--------------------------|
b|-----------1---1-------1----1-----------3---3---3-----|
g|-------2-----2-----2-----2----------------2-------2---|
d|-----3--------------------------------0-------0-----0-|
a|---3--------------------------------0-----------------|
e|-1--------------------------------0-------------------|

Verse 1

Guitar 1- Repeat Intro Until Chorus

Guitar 2- Play Chords

F					 C
ĎCause wanting more from me is tearing me, Itís breaking me

F				    Dm
But what you wantís not mine to give

F			    C
Iím your dollar sign, your brand new house, your product line

F                        Dm
When youíre done with me Iím spent

F				 Dm
When the smoke is gone I have to face what Iíve becomeÖ

Part between verse and Chorus

Guitar 1- Repeat In Chorus (Listen For It)

e|-----------------|
b|-----------------|
g|-7-7-7--9--------|
d|-7-7-7--9--------|
a|-5-5-5--7--------|
e|-----------------|

Chorus
[ Tab from: http://www.guitaretab.com/s/seventh-day-slumber/75144.html ]
F			 C			     Dm
Will you rescue me? Could you get me out alive?

			 C					F
Iím trying to hold on but Iíve lost the will to fight

		    C			  Dm  C
Will you rescue me? Take me far away from this shattered life
Verse 2

F			 C						 F
How can I go on pretending that thereís nothing wrong?

			   Dm
Life has brought me to my knees

F			    C
This mask I hide behind is killing me,


Thereís nothing left

F			   Dm
Is there anyone who feels like me?

F			  Dm
When the smoke is gone I have to face what Iíve become...


Repeat Chorus

After Chorus It goes into this

e|-------------------------------------------|
b|-------------------------------------------|
g|-7777777777777777--33333333--55555555------|
d|-7777777777777777--33333333--55555555------|
a|-5555555555555555--11111111--33333333------|
e|-------------------------------------------|

Thatís all there is to it. I have never seen Seventh Day Slumber in concert, so when
play it live, it will probably sound different. I am 90% sure this is correct, if you have
comments, post them on the site

Your fellow punk,

Dave
Related for Shattered Life tab