Song name
# A B C D E F G H I J K L M N O P Q R S T U V W X Y Z

Seventh Seal - Forsaken tab

Seventh Seal
Forsaken
Beastly song by an awesome band. Check out my other tabs for this band too.
-12stoneslover33

intro
|--------------------------------------------------------------------|
|--------------------------------------------------------------------|
|-------------4~-----------------------------------------------------|
|-------------x----------------------------------------------------|2x
|-2p0-0-2p0-0-2~2p0-0-2p0-0-3030-------------------------------------|
|-2p0-0-2p0-0---2p0-0-2p0-0-3030-------------------------------------|
                            ....
Verse
|--------------------------------------------------------------------|
|--------------------------------------------------------------------|
|--------------------------------------------------------------------|
|-------0h2/3/5------2h3/5/7------0h2/3/5------2h3/5/7-------------|6x
|--------------------------------------------------------------------|
|-00-0-0-------00-0-0-------00-0-0-------00-0-0----------------------|
  .. . .       .. . .       .. . .       .. . .
Pre chorus
|--------------------------------------------------------------------|
|--------------------------------------------------------------------|
|--------------------------------------------------------------------|
|-----7p5-7p5\3----------------------------------------------------|4x
|00-07---------00000000-5-00-7---------------------------------------|
|00-07---------00000000-5-00-7---------------------------------------|
               ........   ..
Chorus, clean
|--------------------------------------------------------------------|
|--------------------------------------------------------------------|
|---7-777/9-999/10-101010\9-999-7-777/9-999/10-101010\9-999----------|
|---7-777/9-999/10-101010\9-999-7-777/9-999/10-101010\9-999----------|
|---5-555/7-777/8--8-8-8-\7-777-5-555/7-777/8--8-8-8-\7-777----------|
|--------------------------------------------------------------------|

Verse
Pre chorus
Chorus
Pre solo 
|--------------------------------------------------------------------|
|--------------------------------------------------------------------|
|--------------------------------------------------------------------|
|--------------------------------------------------------------------|
|--------------------------------------------------------------------|
|-000-000-000-00-00-000-000-000-12\----------------------------------|
  ... ... ... .. .. ... ... ...



Solo
|--------------------------------------------------------------------|
|-------------------------------------------------/18--17-15---------|
|-8b7v~-11b9v~-8b7v~-7b5v~-8-7-8-5-7-5-3-5-3-2-3-2---17-----16-151613|
|--------------------------------------------------------------------|
|--------------------------------------------------------------------|
|--------------------------------------------------------------------|

|--------------------------------------------------------------------|
|-18-17-18-15-17-15-13-15-13-12-13-12-10-12-10~----------------------|
|--------------------------------------------------------------------|
|--------------------------------------------------------------------|
|--------------------------------------------------------------------|
|--------------------------------------------------------------------|

|-----------------------------------------------------------------------|
|-----------------------------------------------------------------------|
|-----------------------------------------------------------------------|
|----------------10h12h13---------------11h13h14----------------12h14h15|
|--------10h12h13---------------11h13h14----------------12h14h15--------|
|10h12h13---------------11h13h14----------------12h14h15----------------|

|--------------------------------------------------------------------|
|-14b13v~-12b17v~-13b12v~-12b10v~~~----------------------------------|
|--------------------------------------------------------------------|
|--------------------------------------------------------------------|
|--------------------------------------------------------------------|
|--------------------------------------------------------------------|
|--------------------------------------------------------------------|

Chorus
Outro
|--------------------------------------------------------------------|
|--------------------------------------------------------------------|
|--------------------------------------------------------------------|
|--------------------------------------------------------------------|
|-12-121212-14-141414-15-151515-14-141414----------------------------|
|-12-121212-14-141414-15-151515-14-141414----------------------------|
Play till end.
Finished!!!!!!!
Tap to rate this tab
 
# A B C D E F G H I J K L M N O P Q R S T U V W X Y Z