Song name
# A B C D E F G H I J K L M N O P Q R S T U V W X Y Z

Seventh Star - Represent tab

This is the hidden track on their album "Dead End"

Tuning: CGCFAD

1st Riff
D|---------------------------------------------------------------------------|
A|---------------------------------------------------------------------------|
F|-7--------5-/-7------------------------------------------------------------|
C|-7--------5-/-7------------------------------------------------------------|
G|-5--0--0--3-/-5--0--0--5--5--5--5--5--3--3--6--6---------------------------|
C|----0--0---------0--0--5--5--5--5--5--3--3--6--6---------------------------|
      . .          .  .     .  .  .  .  .  .  .  .

2nd Part
D|-------------------------------------------------------------------------------------|
A|-------------------------------------------------------------------------------------|
F|-------------------------------------------------------------------------------------|
C|-------------------------------------------------------------------------------------|
G|-0-x16---5--5--3--6------------------------------------------------------------------|
C|-0-------5--5--3--6------------------------------------------------------------------|
   .

Breakdown
e|------------------------------------------------------------------|
B|------------------------------------------------------------------|
G|------------------------------------------------------------------|
D|------------------------------------------------------------------|
A|-4--3--1--0----0-0-0---0--0-0-0---4--3--1--0----0-0-0---0--0-0-0--|
E|-4--3--1--0----0-0-0---0--0-0-0---4--3--1--0----0-0-0---0--0-0-0--|
   .  .  .       . . .   .  . . .   .  .  .       . . .   .  . . .


| /  slide up
| \  slide down
| h  hammer-on
| p  pull-off
| ~  vibrato
| +  harmonic
| x  Mute note
===============================================================================
Tap to rate this tab
 
# A B C D E F G H I J K L M N O P Q R S T U V W X Y Z