Song name
# A B C D E F G H I J K L M N O P Q R S T U V W X Y Z

Seventh Star - Brood Of Vipers tab

Brood of vipers by seventh star

awesome song by a awesome band!
this is my first tab just like everyone else.
it may b wrong bt i dont care its a start
i think it sounds mostly right tho :)

drop c tuning CGCFAD

intro:
-------------------------------------------------|
-------------------------------------------------|
-----7---------7---------7------------   repeat--| x4
-x-x-7-----x-x-7-----x-x-7-----------------------|
-x-x-5-5-6-x-x-5-5-8-x-x-5-5-6-8-6-5-6 <---------|(6 bend on the last time only)
-x-x-------x-x-------x-x-------------------------|

verse:
      silther round with a crown...
----------------------------------------------------|
----------------------------------------------------|
-----------------------------------------   repeat--| x4
-xxxxxx-----xxxxxx-----xxxxxx-----------------------|
-xxxxxx-5-6-xxxxxx-8-6-xxxxxx-5-6-8-6-5-6-----------|
-xxxxxx-----xxxxxx-----xxxxxx-----------------------|

pre-chorus:

 praying the weak and hungry...
--------------------------------|
--------------------------------|
----------------------  repeat--| x4
--0--0--1----1-3-4-3-1----------|
--0--0--1----1-3-4-3-1----------|
--0--0--1----1-3-4-3-1----------|

chorus:

      brood    of vipers   den of robbers...
-------------------------------------------------|
-------------------------------------------------|
-----7---------7---------7------------   repeat--| x4
-x-x-7-----x-x-7-----x-x-7-----------------------|
-x-x-5-5-6-x-x-5-5-8-x-x-5-5-6-8-6-5-6-----------|
-x-x-------x-x-------x-x-------------------------|

bridge:

           greedy heart...
---      --------------------------|
---      --------------------------|
---      --------------------------|   repeat x4
-0-      --0-1-3---3-4-3-01344-----|
-0-      --0-1-3---3-4-3-01344-12h-|  (this part probly bit wrong)
-0-      --0-1-3---3-4-3-01344-----|    (but near enuf)

verse again
then chorus

end on---
      ---
      ---
      -0-
      -0-
      -0-

intro
verse 1
pre-chorus
chorus
bridge
verse 2
chorus
end
Tap to rate this tab
# A B C D E F G H I J K L M N O P Q R S T U V W X Y Z