Song name
# A B C D E F G H I J K L M N O P Q R S T U V W X Y Z

Seventh Star - Resistence To Resistence tab

-------------------------------------------------------------------------------
                RESISTENCE TO RESISTENCE - Seventh Star
-------------------------------------------------------------------------------
Tabbed by: thatoneguy99999

	
Tuning: CGCFAD

Intro: 2X
D|---------------------------------------------------------------------------|
A|---------------------------------------------------------------------------|
F|-8\7-7-7-7-7-7-7---8\7-7-7-7-7-7-7---8\7-7-7--5-5-5-5---10101010--3-3-3-3--|
C|-8\7-7-7-7-7-7-7---8\7-7-7-7-7-7-7---8\7-7-7--5-5-5-5---10101010--3-3-3-3--|
G|-6\5-5-5-5-5-5-5---6\5-5-5-5-5-5-5---6\5-5-5--3-3-3-3---8-8-8-8---1-1-1-1--|
C|---------------------------------------------------------------------------|

Guitar 2 on 2nd time
D|---------------------------------------------------------------------------|
A|---------------------------------------------------------------------------|
F|-7-(hold)-------------------------------------5-5-5-5---10101010--3-3-3-3--|
C|-7-(this)-------------------------------------5-5-5-5---10101010--3-3-3-3--|
G|-5-(chord)------------------------------------3-3-3-3---8-8-8-8---1-1-1-1--|
C|---------------------------------------------------------------------------|

Chorus:
D|---------------------------------------------------------------------------|
A|---------------------------------------------------------------------------|
F|-8\7-7-7-7-7-7-7---8\7-7-7-7-7-7-7---8\7-7-7--5-5-5-5---10101010--3-3-3-3--|
C|-8\7-7-7-7-7-7-7---8\7-7-7-7-7-7-7---8\7-7-7--5-5-5-5---10101010--3-3-3-3--|
G|-6\5-5-5-5-5-5-5---6\5-5-5-5-5-5-5---6\5-5-5--3-3-3-3---8-8-8-8---1-1-1-1--|
C|---------------------------------------------------------------------------|

Verse:
D|---------------------------------------------------------------------------|
A|---------------------------------------------------------------------------|
F|----------------------------------------------5---------10---------3-------|
C|-1-0-0-0-0-0-0-0---1-0-0-0-0-0-0-0---1-0-0-0--5-0-0-0---10-0-0-0---3-0-0-0-|
G|-1-0-0-0-0-0-0-0---1-0-0-0-0-0-0-0---1-0-0-0--3-0-0-0---8--0-0-0---1-0-0-0-|
C|-1-0-0-0-0-0-0-0---1-0-0-0-0-0-0-0---1-0-0-0----0-0-0------0-0-0-----0-0-0-|
     P.M----------]    P.M.---------]    P.M.-]   P.M.-]     P.M.-]    P.M.-]

Pre-Chorus: 2X
D|--------------------------------------|
A|--------------------------------------|
F|--------------------------------------|
C|-0----0-1-0-1-3---0----0-1-0-1-5------|
G|-0----0-1-0-1-3---0----0-1-0-1-5------|
C|-0----0-1-0-1-3---0----0-1-0-1-5------|

Breakdown: 5X
D|---------------------------------------------------------------------------|
A|---------------------------------------------------------------------------|
F|---------------------------------------------------------------------------|
C|-5-0-1-0--5-0-0-1-0---5-0-1-0--5-0-0-0-0-0-0-------------------------------|
G|-5-0-1-0--5-0-0-1-0---5-0-1-0--5-0-0-0-0-0-0-------------------------------|
C|-5-0-1-0--5-0-0-1-0---5-0-1-0--5-0-0-0-0-0-0-------------------------------|
                                     P.M.-----]
On Last Time of Breakdown
D|------------|
A|------------|
F|-8-8-8-8-7--|
C|-8-8-8-8-7--|
G|-6-6-6-6-5--|
C|------------|

Order:
Intro
Chorus
Verse
Pre-Chorus 
Chorus
Verse
Pre-Chorus
Pre-Chorus
Breakdown
Chorus
Verse (It is the Verse riff with the Chorus sung over it)


| /  slide up
| \  slide down
| h  hammer-on
| p  pull-off
| ~  vibrato
| +  harmonic
| x  Mute note
===============================================================================
Tap to rate this tab
# A B C D E F G H I J K L M N O P Q R S T U V W X Y Z