Song name
# A B C D E F G H I J K L M N O P Q R S T U V W X Y Z

Sever Your Ties - Voice Like A Nova tab

Voice like a Nova
Sever your Ties
Safety in the Sea
2008

Tuning: Drop D 

Intro

|Guitar 1 (low volume, fade in)
|-----------------------------------------------------------------|
|-----------------------------------------------------------------|
|-----------------------------------------------------------------|
|-2-2-2-2-2-2-2-2-2-2-2-2-2-2-2-2-2-2-2-2-2-2-2-2-2-2-2-2-2-2-2-2-|
|-2-2-2-2-2-2-2-2-2-2-2-2-2-2-2-2-2-2-2-2-2-2-2-2-2-2-2-2-2-2-2-2-|
|-2-2-2-2-2-2-2-2-2-2-2-2-2-2-2-2-2-2-2-2-2-2-2-2-2-2-2-2-2-2-2-2-|
|
|Guitar 2 (w/heavy echo effect)
|-----------------------------------------------------------------|
|-----------------------------------------------------------------|
|--------------------------------------------------9/17-17-17-----|
|-----------------------------------------------------------------|
|-----------------------------------------------------------------|
|-----------------------------------------------------------------|

Verse 
|-----------------------------------------------------------------|
|-----------------------------------------------------------------|
|-----------------------------------------------------------------|
|-2~~-2-2-2-2-2-2-2-2-2-2-5---0---2~~-x-x-x-x-x---0---2---5---0---|
|-2~~-2-2-2-2-2-2-2-2-2-2-5---0---2~~-x-x-x-x-x---0---2---5---0---|    
|-2~~-2-2-2-2-2-2-2-2-2-2-5---0---2~~-x-x-x-x-x---0---2---5---0---|x4

Chorus 
|-----------------------------------------------------------------|
|-----------------------------------------------------------------|
|-4-4-4-4-4-4-4-4-4-4-4-4-4-4-4-4-7-7-7-7-7-7-7-7-9-9-9-9-9-9-9-9-|
|-x-x-x-x-x-x-x-x-x-x-x-x-x-x-x-x-x-x-x-x-x-x-x-x-x-x-x-x-x-x-x-x-|
|-2-2-2-2-2-2-2-2-2-2-2-2-2-2-2-2-5-5-5-5-5-5-5-5-7-7-7-7-7-7-7-7-|
|-----------------------------------------------------------------|

|-----------------------------------------------------------------|
|-----------------------------------------------------------------|
|-111111111111111111111111111111119-9-9-9-9-9-9-9-1111111111111111|
|-x-x-x-x-x-x-x-x-x-x-x-x-x-x-x-x-x-x-x-x-x-x-x-x-x-x-x-x-x-x-x-x-|
|-9-9-9-9-9-9-9-9-9-9-9-9-9-9-9-9-7-7-7-7-7-7-7-7-9-9-9-9-9-9-9-9-|
|-----------------------------------------------------------------|

|-----------------------------------------------------------------|
|-----------------------------------------------------------------|
|-4-4-4-4-4-4-4-4-4-4-4-4-4-4-4-4-7-7-7-7-7-7-7-7-9-9-9-9-9-9-9-9-|
|-x-x-x-x-x-x-x-x-x-x-x-x-x-x-x-x-x-x-x-x-x-x-x-x-x-x-x-x-x-x-x-x-|
|-2-2-2-2-2-2-2-2-2-2-2-2-2-2-2-2-5-5-5-5-5-5-5-5-7-7-7-7-7-7-7-7-|
|-----------------------------------------------------------------|

|-----------------------------------------------------------------|
|-----------------------------------------------------------------|
|-111111111111111111111111111111119-9-9-9-9-9-9-9-1212121212------|
|-x-x-x-x-x-x-x-x-x-x-x-x-x-x-x-x-x-x-x-x-x-x-x-x-x-x-x-x-x-------|
|-9-9-9-9-9-9-9-9-9-9-9-9-9-9-9-9-7-7-7-7-7-7-7-7-1010101010------|
|-----------------------------------------------------------------|

Post-chorus

|-----------------------------------------------------------------|
|-----------------------------------------------------------------|
|-----------------------------------------------------------------|
|-2~~~~~~~~~~~~~~~~~~~~~~-7~~~~~~-5~~~~~~~~~~~~~~-4~~~~~~-7~~~~~~-|
|-2~~~~~~~~~~~~~~~~~~~~~~-7~~~~~~-5~~~~~~~~~~~~~~-4~~~~~~-7~~~~~~-|
|-2~~~~~~~~~~~~~~~~~~~~~~-7~~~~~~-5~~~~~~~~~~~~~~-4~~~~~~-7~~~~~~-|x2

|Guitar 1
|---------------------------------------------------------------------|
|---------------------------------------------------------------------|
|---------------------------------------------------------------------|
|-9-0-0-9-0-0-7-0-7h9-0-9-0-0-7-0-12-0-0-12-0-0-9-0-9h12-0-12-0-0-7h9-|
|---------------------------------------------------------------------|
|---------------------------------------------------------------------|
|Pm.* *   * *   *     *   * *   *    * *    * *   *      *    * *     
|Guitar 2
|-----------------------------------------------------------------|
|-----------------------------------------------------------------|
|-----------------------------------------------------------------|
|-2~~~~~~~~~~~~~~~~~~~~~~-7~~~~~~-5~~~~~~~~~~~~~~-4~~~~~~-7~~~~~~-|
|-2~~~~~~~~~~~~~~~~~~~~~~-7~~~~~~-5~~~~~~~~~~~~~~-4~~~~~~-7~~~~~~-|
|-2~~~~~~~~~~~~~~~~~~~~~~-7~~~~~~-5~~~~~~~~~~~~~~-4~~~~~~-7~~~~~~-| x4

Both guitars:
|---------------------------------------------------------------------|
|---------------------------------------------------------------------|
|---------------------------------------------------------------------|
|-9-0-0-9-0-0-7-0-7h9-0-9-0-0-7-0-12-0-0-12-0-0-9-0-9h12-0-12-0-0-7h9-|
|---------------------------------------------------------------------|
|---------------------------------------------------------------------| 
Pm. * *   * *   *     *   * *   *    * *    * *   *      *    * *   x4

|---------------------------------------------------------------------|
|---------------------------------------------------------------------|
|---------------------------------------------------------------------|
|-9-0-0-9-0-0-7-0-7h9-0-9-0-0-7-0-12-0-0-12-0-0-9-0-9-0-0-12-0-0-7h9--|
|---------------------------------------------------------------------|
|---------------------------------------------------------------------|
Pm. * *   * *   *     *   * *   *    * *    * *   *   * *    * *


Verse 
Chorus 
Post-chorus

Then wait one beat before hitting this last chord:
|-----------------------------------------------------------------|
|-----------------------------------------------------------------|
|-----------------------------------------------------------------|
|---------2~~~~~~~~~~~~~~~~~~~~~~~~~~~~~~~~~~~~~~~~~~~~~~~~~~~~~~-|
|---------2~~~~~~~~~~~~~~~~~~~~~~~~~~~~~~~~~~~~~~~~~~~~~~~~~~~~~~-|
|---------2~~~~~~~~~~~~~~~~~~~~~~~~~~~~~~~~~~~~~~~~~~~~~~~~~~~~~~-|

And we’re done! Not too tough to play. Rate, comment, and enjoy! 
Drop me a message if you have any questions or corrections. 
Tap to rate this tab
# A B C D E F G H I J K L M N O P Q R S T U V W X Y Z