Song name
# A B C D E F G H I J K L M N O P Q R S T U V W X Y Z

Sex Bob-omb - Threshold tab

WE ARE SEX BOB-OMB AND WE ARE HERE TO MAKE YOU THINK ABOUT DEATH AND GET SAD AND STUFF!

Verse
e|-----------------------------------------------------------------|
B|-----------------------------------------------------------------|
G|--5-5/8/3-3-----8----7----2-----5-5/8/3-3-----8----7----2--------|
D|--5-5/8/3-3-x8--8-x8-7-x4-2-x4--5-5/8/3-3-x6--8-x8-7-x4-2-x4-----|
A|--3-3/6/1-1-----6----5----0-----3-3/6/1-1-----6----5----0--------|
E|-----------------------------------------------------------------|
 This is the beginning of the song
e|----------------------|
B|----------------------|
G|--5-5/8/3-3-----5-----|
D|--5-5/8/3-3-x3--5-x8--|
A|--3-3/6/1-1-----3-----|
E|----------------------|

Chorus
e|-----------------|
B|-----------------|
G|--5----3---------|
D|--5-x8-3-x4-4----|X2
A|--3----1----4-x4-|
E|------------2----|

Verse
e|-----------------------------------------------------------------|
B|-----------------------------------------------------------------|
G|--5-5/8/3-3-----8----7----2-----5-5/8/3-3-----8----7----2--------|
D|--5-5/8/3-3-x6--8-x8-7-x4-2-x4--5-5/8/3-3-x6--8-x8-7-x4-2-x4-----|
A|--3-3/6/1-1-----6----5----0-----3-3/6/1-1-----6----5----0--------|
E|-----------------------------------------------------------------|

e|----------------------|
B|----------------------|
G|--5-5/8/3-3-----5-----|
D|--5-5/8/3-3-x3--5-x8--|
A|--3-3/6/1-1-----3-----|
E|----------------------|

Chorus
e|-----------------|
B|-----------------|
G|--5----3---------|
D|--5-x8-3-x4-4----|X2
A|--3----1----4-x4-|
E|------------2----|

Outro
e|---------------------------------------|
B|---------------------------------------|
G|--5-5-5/8/11-11------------------------|
D|--5-5-5/8/11-11-x8-8-8-8-8-/-4-4-4-4---|
A|--3-3-3/6/9--9-----8-8-8-8-/-4-4-4-4---|
E|-------------------6-6-6-6-/-2-2-2-2---|

e|---------------------------------------|
B|---------------------------------------|
G|--5-5-5/8/11-11------------------------|
D|--5-5-5/8/11-11----8-8-8-8-/-4-4-4-4---|
A|--3-3-3/6/9--9-----8-8-8-8-/-4-4-4-4---|
E|-------------------6-6-6-6-/-2-2-2-2---|

e|---------------------------------------|
B|---------------------------------------|
G|--5-5-5/8/11-11------------------------|
D|--5-5-5/8/11-11-x2-8-8-8-8-/-4-4-4-4---|
A|--3-3-3/6/9--9-----8-8-8-8-/-4-4-4-4---|
E|-------------------6-6-6-6-/-2-2-2-2---|

In my opinion the best song in the movie. I learned this all by ear and will be for all 
other sex bob-omb songs (or at least will try)
Tap to rate this tab
 
# A B C D E F G H I J K L M N O P Q R S T U V W X Y Z