Song name
# A B C D E F G H I J K L M N O P Q R S T U V W X Y Z

Sex Bob-omb - Garbage Truck tab

Garbage Truck
Sex Bob-omb/Beck
Scott Pilgrim vs. the World
Tabbed By Jonathan Olejarczyk


       Wooh!             Ah-Ha-ha
      I'll take you for a ride           On my garbage truck              x2
E||-----------------|-----------------|-----------------|-----------------||
B||o----------------|-----------------|-----------------|----------------o||
G||--------7--7--7--|--------4-x-4-x--|--------7--7--7--|--------4--4--4--||
D||--2--2--7--7--7--|--5--5--4-x-4-x--|--2--2--7--7--7--|--5--5--4--4--4--||
A||o-2--2--5--5--5--|--5--5--2-x-2-x--|--2--2--5--5--5--|--5--5--2--2--2-o||
E||--0--0-----------|--3--3-----------|--0--0-----------|--3--3-----------||

                       Oh no             I'll take you to the dump
E|------------------|-----------------|-----------------|------------------|
B|------------------|-----------------|-----------------|------------------|
G|---4---4---4---4--|---2---2---2-----|--------7--7--7--|--------4--4--4---|
D|---4---4---4---4--|---2---2---2-----|--2--2--7--7--7--|--5--5--4--4--4---|
A|---2---2---2---2--|---0---0---0-----|--2--2--5--5--5--|--5--5--2--2--2---|
E|------------------|------------3-0-2|--0--0-----------|--3--3------------|

    Cuz' you're my queen                    I'll take you uptown
E|------------------|-----------------|-----------------|------------------|
B|------------------|-----------------|-----------------|------------------|
G|--------7--7--7---|--------4--4--4--|--2---2---2---2--|--5---5---5---5---|
D|--2--2--7--7--7---|--5--5--4--4--4--|--2---2---2---2--|--5---5---5---5---|
A|--2--2--5--5--5---|--5--5--2--2--2--|--0---0---0---0--|--3---3---3---3---|
E|--0--9------------|--3--3-----------|-----------------|------------------|

  I'll show you the sights, you know you wanna ride                 On my
E|------------------|-----------------|-----------------|------------------|
B|------------------|-----------------|-----------------|------------------|
G|--2---2---2---2---|---5--5--5--5-7--|--------7--7--7--|--------4--4--4---|
D|--2---2---2---2---|---5--5--5--5-7--|--2--2--7--7--7--|--5--5--4--4--4---|
A|--0---0---0---0---|---3--3--3--3-5--|--2--2--5--5--5--|--5--5--2--2--2---|
E|------------------|-----------------|--0--0-----------|--3--3------------|

 garbage truck      Truck, truck, truck     We'll pass the mansions by
E|------------------|-----------------|-----------------|------------------|
B|------------------|-----------------|-----------------|------------------|
G|---------7--7--7--|----------4--4---|--2---2---2---2--|--5---5---5---5---|
D|---2--2--7--7--7--|---5--5---4--4---|--2---2---2---2--|--5---5---5---5---|
A|---2--2--5--5--5--|---5--5---2--2---|--0---0---0---0--|--3---3---3---3---|
E|---0--0-----------|---3--3----------|-----------------|------------------|

   Drive right through, the needles eye. Oh my        
E|------------------|-----------------|-----------------|------------------|
B|------------------|-----------------|-----------------|------------------|
G|--2---2---2---2---|---5--5--5--5-7--|--------7--7--7--|---------4-x-4-x--|
D|--2---2---2---2---|---5--5--5--5-7--|--2--2--7--7--7--|--5--5---4-x-4-x--|
A|--0---0---0---0---|---3--3--3--3-5--|--2--2--5--5--5--|--5--5---2-x-2-x--|
E|------------------|-----------------|--0--0-----------|--3--3------------|
 
         My, my, my, my                           I got a stereo 
E|------------------|-----------------|-----------------|------------------|
B|------------------|-----------------|-----------------|------------------|
G|---------7--7--7--|--------4-x-4-x--|--2---2---2---2--|--5---5---5---5---|
D|--2--2---7--7--7--|--5--5--4-x-4-x--|--2---2---2---2--|--5---5---5---5---|
A|--2--2---5--5--5--|--5--5--2-x-2-x--|--0---0---0---0--|--3---3---3---3---|
E|--0--0------------|--3--3-----------|-----------------|------------------|

 You just got to turn the knob, and baby we'll go *Bass Line Start*
E|------------------|-----------------|-----------------|------------------|
B|------------------|-----------------|-----------------|------------------|
G|---2---2---2---2--|--5---5---5---5--|-----------------|------------------|
D|---2---2---2---2--|--5---5---5---5--|-----------------|------------------|
A|---0---0---0---0--|--3---3---3---3--|-----------------|------------------|
E|------------------|-----------------|-----------------|------------------|

 As far as we can         I'll be your garbage man             I'll take out
E|------------------|-----------------|-----------------|------------------|
B|------------------|-----------------|-----------------|------------------|
G|------------------|-----------------|-----------------|------------------|
D|------------------|-----------------|-----------------|------------------|
A|------------------|-----------------|-----------------|------------------|
E|------------------|-----------------|-----------------|------------------|

 your junk    And I'll push it down *BLE*   Jesus in my rear view
E|------------------|-----------------|-----------------|------------------|
B|------------------|-----------------|-----------------|------------------|
G|------------------|-----------------|--2---2---2---2--|--5---5---5---5---|
D|------------------|-----------------|--2---2---2---2--|--5---5---5---5---|
A|------------------|-----------------|--0---0---0---0--|--3---3---3---3---|
E|------------------|-----------------|-----------------|------------------|

 And the highway patrol, up ahead      *Bass Line Start*       
E|------------------|-----------------|-----------------|------------------|
B|------------------|-----------------|-----------------|------------------|
G|---2---2---2---2--|--5---5---5---5--|-----------------|------------------|
D|---2---2---2---2--|--5---5---5---5--|-----------------|------------------|
A|---0---0---0---0--|--3---3---3---3--|-----------------|------------------|
E|------------------|-----------------|-----------------|------------------|

   In my garbage truck, truck                 I'll never throw you away
E|------------------|-----------------|-----------------|------------------|
B|------------------|-----------------|-----------------|------------------|
G|------------------|-----------------|-----------------|------------------|
D|------------------|-----------------|-----------------|------------------|
A|------------------|-----------------|-----------------|------------------|
E|------------------|-----------------|-----------------|------------------|

        When you're old and gray              You just roll away
E|------------------|-----------------|-----------------|------------------|
B|------------------|-----------------|-----------------|------------------|
G|------------------|-----------------|-----------------|------------------|
D|------------------|-----------------|-----------------|------------------|
A|------------------|-----------------|-----------------|------------------|
E|------------------|-----------------|-----------------|------------------|



Tap to rate this tab
 
# A B C D E F G H I J K L M N O P Q R S T U V W X Y Z