Sex Bob-omb - Threshold tab

-------------------------------------------------------------------------------
			     Threshold - Sex Bob-omb
-------------------------------------------------------------------------------
Tabbed by: Guitarinator123
Email: Whyguy20@gmail.com

Tuning: Standard

e|---------------------------------------------------------------------------|
B|---------------------------------------------------------------------------|
G|---------------------------------------------------------------------------|
D|---------------------------------------------------------------------------|
A|---333-5-----333-5-----333-5-----333-5-----333-5-----333-5-----333-5-------|
E|----------1---------1---------1---------1---------1---------1---------1----|

e|---------------------------------------------------------------------------|
B|---------------------------------------------------------------------------|
G|---------------------------------------------------------------------------|
D|---------------------------------------------------------------------------|
A|---333-5------66666666-55555555--------------------------------------------|
E|----------1----------------------------------------------------------------|



************************************

| /   slide up
| \   slide down
| h   hammer-on
| p   pull-off
| ~   vibrato
| +   harmonic
| x   Mute note
| b   Bend
| pb  Pre-bend
| br  Bend release
| pbr Pre-bend release
| brb Bend release bend

************************************
Tap to rate this tab
 
# A B C D E F G H I J K L M N O P Q R S T U V W X Y Z