Sex Bob-omb - Garbage Truck tab

Garbage truck by Sex Bob-omb
Tabbed by: Carbonshield
Email:carbonshield@hotmail.co.uk

Tuning: Standard
Main riff
e|---------------------|
B|---------------------|
G|---------------------|
D|---------------------|
A|-2-2--12-12--3-3--7-7|
E|-0-0--10-10--5-5--9-9|
Verse
e|--------------------|
B|--------------------|
G|--------------------|
D|--------------------|
A|-9-9-9-9--7-7-7-7---|
E|-7-7-7-7--5-5-5-5---|
Verse 2
e|-------------------------------------------|
B|-------------------------------------------|
G|-------------------------------------------|
D|-------------------------------------------|
A|-7-7-7-7-8--8--8--8---7-7-7-7-8--8--8--8---|
E|-5-5-5-5-10-10-10-10--5-5-5-5-10-10-10-10--|

Its pretty simple these are the only three parts to the song. Just listen through and 
find what goes where.
Tap to rate this tab
 
# A B C D E F G H I J K L M N O P Q R S T U V W X Y Z