Sex Bob-omb - Garbage Truck tab

Garbage Truck
By
Sex Bob-Omb
Tabbed by Stylaphone

Right now this is the offical tabbed from what i have seen no one has put the 
proper tab up yet so i though i would have ago... This is what i got

Main Riff
|---------------------------|
|---------------------------|
|-1-1--11-11-11--4-4--8-8-8-|
|-2-2--12-12-12--5-5--9-9-9-| x4 then move onto mini fill
|-2-2--12-12-12--5-5--9-9-9-|
|------10-10-10--3-3--7-7-7-|

Mini Fill

|-----------------------|
|-----------------------|
|-8-8-8-8--6-6-6-6--3-1-|
|-9-9-9-9--7-7-7-7--4-2-| Then Straight back to main riff.
|-9-9-9-9--7-7-7-7--4-2-|
|-7-7-7-7--5-5-5-5--2---|

Chours

|-----------------------------------------------|
|-----------------------------------------------|
|-6-6-6-6--9--9--9--9---6-6-6-6--9--9--9--9---8-|
|-7-7-7-7--10-10-10-10--7-7-7-7--10-10-10-10--9-|
|-7-7-7-7--10-10-10-10--7-7-7-7--10-10-10-10--9-| then back to main riff.
|-5-5-5-5--8--8--8--8---5-5-5-5--8--8--8--8---7-|

That is all the riff for the song just play them ih the right orders and
learn the strum pattern and off you go there is also a differnt chord 
progression which is like this but the power chord way is easyer.

Normal Chords

|----3--3--2--|
|----2--3-----|
|----3-----2--| Just play this in the same manner as whats above and there
|-2--------1--| you have it.
|-2-----2--2--|
|-------3-----|

Hope this was helpfull to people wanting to learn it :)
Tap to rate this tab
 
# A B C D E F G H I J K L M N O P Q R S T U V W X Y Z