Song name
# A B C D E F G H I J K L M N O P Q R S T U V W X Y Z

Sex Gang Children - Sebastiene tab

Sex Gang Children
Sebastiane
Song and Legend
Transcribed by: Tom Quinn

Band website:
http://www.sexgangchildren.com/

The recorded version doesn't have much guitar, but there's a lot more to the live
version.  I've combined them into one rendition with a few embellishments.  As with most of
the Batcave music, how it's played is entirely up to you.  This is mostly in E minor, 
but overall it's semi-chromatic.  Feel free to e-mail me (M0L3CH@yahoo.com) with any
corrections.  Enjoy ;)

Tuning: Standard (E A D G B e)

VERSE (Recent live version)                                                 Repeat
e|-------------------------------------------------------------------------------||
B|------------------------------------------------------------------------------o||
G|-------------------------------------------------------------------------------||
D|--2---2-2-2---5---4---2---2-2-2---5---4---2---2-2-2---5---4---3---3-3-3-3-3----||
A|--2---2-2-2---5---4---2---2-2-2---5---4---2---2-2-2---5---4---3---3-3-3-3-3---o||
E|--0---0-0-0---3---2---0---0-0-0---3---2---0---0-0-0---2---3---1---1-1-1-1-1----||


PRE-CHORUS A
e|-------------------------------------------------------------------------------||
B|-------------------------------------------------------------------------------||
G|--------------9\x---------------9\x---------------9\x---11--12--10--10--10\x---||
D|--------------9\x---------------9\x---------------9\x---11--12--10--10--10\x---||
A|--------------7\x---------------7\x---------------7\x---9---10--8---8---8-\x---||
E|--(x)/7---7-7-------(x)/7---7-7-------(x)/7---7-7------------------------------||


PRE-CHORUS B
e|--------------7\x---------------7\x---------------7\x-------------------8-\x---||
B|--------------8\x---------------8\x---------------8\x-------------------9-\x---||
G|--------------9\x---------------9\x---------------9\x---11--12--10--10--10\x---||
D|--------------9\x---------------9\x---------------9\x---11--12--10--10--10\x---||
A|--------------------------------------------------------9---10--8---8----------||
E|--(x)/7---7-7-------(x)/7---7-7-------(x)/7---7-7------------------------------||


CHORUS                                        (This part is also played between the
verse 1 & 2)
e|--------------------------------------------|--------------------------------------------||
B|--------------------------------------------|--------------------------------------------||
G|--9-----5-----------------------------------|--9-----5-----------------------------------||
D|--9-----5-----5-4-2---2-2-2-2---2---2---2---|--9-----5-----5-4-2---2-2-2-2---2---2---3---||
A|--7-----3-----5-4-2---2-2-2-2---2---2---2---|--7-----3-----5-4-2---2-2-2-2---2---2---3---||
E|--------------3-2-0---0-0-0-0---0---0---0---|--------------3-2-0---0-0-0-0---0---0---1---||


The lyrics are all online, and mostly correct.  Have fun.


Key:

( ) = Ghost note
 x  = Dead note
 /  = Slide up
 \  = Slide down
Tap to rate this tab
# A B C D E F G H I J K L M N O P Q R S T U V W X Y Z