Guitaretab - guitar tabs
Song name
# A B C D E F G H I J K L M N O P Q R S T U V W X Y Z

Sex Machineguns - Deamedo Icchookusen tab

Intro:

E----------------------------------------------------------|
A-13-0-0-12-0-0-10-0-12-0-0-10-0-0-8-0-7-0-0-8-0-0-10-0-12-|
D----------------------------------------------------------|
G----------------------------------------------------------|
B----------------------------------------------------------|
E----------------------------------------------------------|

E----------------------------------------------------------|
A-0-0-13-0-0-12-0-13-0-0-12-0-0-10-0-12-0-0-10-0-0-8-0-7-0-|
D----------------------------------------------------------|
G----------------------------------------------------------|
B----------------------------------------------------------|
E----------------------------------------------------------|

E------------------------------------------------------------|
A-10-0-0-12-0-0-10-0--8-0-0-7-0-0-8-0-10-0-0-13-0-0-12-0-10--|
D------------------------------------------------------------|
G------------------------------------------------------------|
B------------------------------------------------------------|
E------------------------------------------------------------|

E-----------------------------------------------------------|
A-0-0-13-0-0-12-0-10-0-0-12-0-0-10-0-8-0-0-10-0-0-8-0-7-0-0-|
D-----------------------------------------------------------|
G-----------------------------------------------------------|
B-----------------------------------------------------------|
E-----------------------------------------------------------|

E-----------------------------------------------------------|
A-8-0-0-10-0-12-0-0-13-0-0-12-0-10-0-0-12-0-0-10-0-8-0-0-15-|
D-----------------------------------------------------------|
G-----------------------------------------------------------|
B-----------------------------------------------------------|
E-----------------------------------------------------------|

E----------------------------------------------------------|
A-0-0-13---------------------------------------------------|
D----------------------------------------------------------|
G----------------------------------------------------------|
B----------------------------------------------------------|
E----------------------------------------------------------|

Body:

E-20-0-0-19-0-0-17-0-19-0-0-17-0-0-15-0-17-0-0-15-0-0-14-0--|
A-----------------------------------------------------------|
D-----------------------------------------------------------|
G-----------------------------------------------------------|
B-----------------------------------------------------------|
E-----------------------------------------------------------|

E-0-15-0-0-17-0-0-19-0-20-0-0-19-0-0-17-0-19-0-0-17-0-0-15--|
A-----------------------------------------------------------|
D-----------------------------------------------------------|
G-----------------------------------------------------------|
B-----------------------------------------------------------|
E-----------------------------------------------------------|

E-0-14-0-0-15-0-0-17-0-20-0-0-19-0-0-17-0-20-0-0-19-0-0-17--|
A-----------------------------------------------------------|
D-----------------------------------------------------------|
G-----------------------------------------------------------|
B-----------------------------------------------------------|
E-----------------------------------------------------------|

E-0-19-0-0-17-0-0-15-0-17-0-0-15-0-0-14-0-15-0-0-17-0-0-19--|
A-----------------------------------------------------------|
D-----------------------------------------------------------|
G-----------------------------------------------------------|
B-----------------------------------------------------------|
E-----------------------------------------------------------|

E-0-20-0-0-19-0-0-17-0-19-0-0-17-0-0-15-0-14-0-0-15-0-0-17--|
A-----------------------------------------------------------|
D-----------------------------------------------------------|
G-----------------------------------------------------------|
B-----------------------------------------------------------|
E-----------------------------------------------------------|

FULL→ FULL
E-0-15-0-0-17-0-0-19-0-17-0-0-19-0-0-20-0--22‎--22‏--(22)^20-|
A----------------------------------------------------------------|
D----------------------------------------------------------------|
G----------------------------------------------------------------|
B----------------------------------------------------------------|
E----------------------------------------------------------------|

R
E-22--22-20-19----22-20-19---22-20-19--------------------------|
A--------------22----------22---------22—20\-----------------|
D--------------------------------------------------------------|
G--------------------------------------------------------------|
B--------------------------------------------------------------|
E--------------------------------------------------------------|

E------------------------------------------------------------|
A------------------------------------------------------------|
D--4--4-4-4-4-4-4-4-4-4-4-4-4-4-4---4--4-4-4-4-4-4-4-4-4-4-4-|
G--4--4-4-4-4-4-4-4-4-4-4-4-4-4-4---4--4-4-4-4-4-4-4-4-4-4-4-|
B--2--2-2-2-2-2-2-2-2-2-2-2-2-2-2---2--2-2-2-2-2-2-2-2-2-2-2-|
E------------------------------------------------------------|

E------------------------------------------------------------|
A------------------------------------------------------------|
D--4--5--4--4-4-4-4-4-4-4-4-4-4-4-4-4-4--7--5----------------|
G--4--5--4--4-4-4-4-4-4-4-4-4-4-4-4-4-4--7--5----------------|
B--2--3--2--2-2-2-2-2-2-2-2-2-2-2-2-2-2--5--3----------------|
E------------------------------------------------------------|

E------------------------------------------------------------|
A------------------------------------------------------------|
D--4--4-4-4-4-4-4-4-4-4-4-4-4-4-4---4--4-4-4-4-4-4-4-4-4-4-4-|
G--4--4-4-4-4-4-4-4-4-4-4-4-4-4-4---4--4-4-4-4-4-4-4-4-4-4-4-|
B--2--2-2-2-2-2-2-2-2-2-2-2-2-2-2---2--2-2-2-2-2-2-2-2-2-2-2-|
E------------------------------------------------------------|

E-------------------------------------------------------------|
A-------------------------------------------------------------|
D--4--5--4--4-4-4-4-4-4-4-4-4-4-4-4-4-4--7--8--5--2--7--4--5--|
G--4--5--4--4-4-4-4-4-4-4-4-4-4-4-4-4-4--7--8--5--2--7--4--5--|€”
B--2--3--2--2-2-2-2-2-2-2-2-2-2-2-2-2-2--5--6--3--0--5--2--3--|
E-------------------------------------------------------------|

E--------------------------------------------9--9--X-X-X-X---|
A--------------------------------------------8--8--X-X-X-X---|
D--2-----------7-5------4-5-7-5-4---5-4------9--9--X-X-X-X---|
G--2--4--5-4-5------4-5-----------5-----5-4--9--9--X-X-X-X---|
B--0-----------------------------------------7--7--X-X-X-X---|
E------------------------------------------------------------|

E--9--9--X-X-X-X--5--5WW5-—5--0--3--5--7--7--X-X-X-X----------|
A--8--8--X-X-X-X—-7--7WW7--7--1--5--7--8--8--X-X-X-X----------|
D--9--9--X-X-X-X--7--7WW7--7--2--5--7--9--9--X-X-X-X------------|
G--9--9--X-X-X-X--7—-7WW7--7--2--5--7--9--9--X-X-X-X----------|
B--7--7--X-X-X-X--5--5WW5--5--0--3--5--7--7--X-X-X-X------------|
E---------------------------------------------------------------|

E--7--7--X-X-X-X--5--5WW5-—5--0--3--5--7--7--X-X-X-X--7--7------|
A--8--8--X-X-X-X—-7--7WW7--7--1--5--7--8--8--X-X-X-X--8—-8----|
D--9--9--X-X-X-X--7--7WW7--7--2--5--7--9--9--X-X-X-X--9—-9------|
G--9--9--X-X-X-X--7—-7WW7--7--2--5--7--9--9--X-X-X-X--9—-9----|
B--7--7--X-X-X-X--5--5WW5--5--0--3--5--7--7--X-X-X-X--7--7--------|
E-----------------------------------------------------------------|

E--X-X-X-X--7--7WW--7WW---------------------------------------|
A--X-X-X-X--8--8WW--8WW---------------------------------------|
D--X-X-X-X--9--9WW--9WW---------------------------------------|
G--X-X-X-X--9--9WW--9WW--14\----------------------------------|
B-----------7--7WW--7WW--14\-7-10-----------------------------|
E------------------------12\----------------------------------|
Solo:

E--------------------------------H---P-------------------------|
A-----------H---P--------------7-^-8-^-7-------H---P-----------|
D---------7-^-9-^-7-------H---------------9--7-^-9-^-7---------|
G--------------------9--7-^-9---------------------------9------|
B--7--10-------------------------------------------------------|
E--------------------------------------------------------------|

E--------------------------------H---P---------H---P-----------|
A-----------H---P--------------7-^-8-^-7-----7-^-10^-7---------|
D---------7-^-9-^-7-------H---------------9-------------9------|
G--------------------9--7-^-9----------------------------------|
B--7--10-------------------------------------------------------|
E--------------------------------------------------------------|

E--------------------------------H---P-------------------------|
A-----------H---P--------------7-^-8-^-7-------H---P-----------|
D---------7-^-9-^-7-------H---------------9--7-^-9-^-7---------|
G--------------------9--7-^-9---------------------------9------|
B--7--10-------------------------------------------------------|
E--------------------------------------------------------------|

E-----------------------------------------------------------------|
A----H---P--------------------------------------------------------|
D--4-^-5-^-4-------H---P------------------------------------------|
G-------------7--4-^-5-^-4-------H---P----------------------------|
B---------------------------7--6-^-7-^-6--------------------------|
E-----------------------------------------8—7\------------------|

E--------------------------------H---P-------------------------|
A-----------H---P--------------7-^-8-^-7-------H---P-----------|
D---------7-^-9-^-7-------H---------------9--7-^-9-^-7---------|
G--------------------9--7-^-9---------------------------9------|
B--7--10-------------------------------------------------------|
E--------------------------------------------------------------|

E--------------------------------H---P---------H---P-----------|
A-----------H---P--------------7-^-8-^-7-----7-^-10^-7---------|
D---------7-^-9-^-7-------H---------------9-------------9------|
G--------------------9--7-^-9----------------------------------|
B--7--10-------------------------------------------------------|
E--------------------------------------------------------------|

E--------------------------------H---P---------H---P-----------|
A-----------H---P--------------7-^-8-^-7-----8-^-10^-8---------|
D---------7-^-9-^-7-------H---------------9-------------11-----|
G--------------------9--7-^-9----------------------------------|
B--7--10-------------------------------------------------------|
E--------------------------------------------------------------|

E-----H----P------------H---P------------H----P----------------|
A--10-^-12-^-10------12-^13-^-12------13-^-15-^-13-----H-------|
D----------------12---------------14----------------16-^-17----|
G--------------------------------------------------------------|
B--------------------------------------------------------------|
E--------------------------------------------------------------|


E-----H----P-----14-11-12-14-12-11------------------------------|
A--15-^-17-^-15--------------------13-10-12-13-12-10------------|
D---------------------------------------------------------------|
G---------------------------------------------------------------|
B---------------------------------------------------------------|
E---------------------------------------------------------------|

E-----------------------------------------------------------------------|
A-------------------------------‎-~~~~~---H---P---------1/2--—1/----|
D--12-9-11-12-11-9--8—8\-----14-‎-(WWWW)—12^14^12-\-8--4---4---4--|
G-------------------------X---------------------------------------------|
B-----------------------------------------------------------------------|
E-----------------------------------------------------------------------|

E-------------------------------7-0-0-5/8-----------------------|
A--------H---8--------10----H--------------12-10-8--------------|
D--/9--8-^-9---9-8-9---9--8-^-9---------------------11-9-8------|
G---------------------------------------------------------------|
B---------------------------------------------------------------|
E---------------------------------------------------------------|

E--8-↑-------11-↑--------14-↑--------17-↑-------20--19-17--------|
A-10-↑-10----13-↑-13-----16-↑-16-----19-↑-19--------------19-----|
D-11-↑-----8-14-↑-----11-17-↑-----14-20-↑----17------------------|
G------------------------------------------------------------------------|
B------------------------------------------------------------------------|
E------------------------------------------------------------------------|
[ Tab from: http://www.guitaretab.com/s/sex-machineguns/100342.html ]
H
E-17-\-17-------17-20-17-------17--14^15^15----14-15-14-19-17-15-|
A---------19-16----------19-19--------------17-------------------|
D----------------------------------------------------------------|
G----------------------------------------------------------------|
B----------------------------------------------------------------|
E----------------------------------------------------------------|

H P H
E---P-------H--P-----------------------8^12--15--12^8^12--17-------|
A-19^17—--16^17^16--17--16--------5--8---------------------------|
D--------------------------19\--5----------------------------------|
G------------------------------------------------------------------|
B------------------------------------------------------------------|
E------------------------------------------------------------------|

P P P
E-12^8-----------15^12-17-16-12—15^12—14-12-15^12--P--------------|
A------12-13------------------13----13-----------13^12--------15------|
D-----------12-------------------------------------------11-14--------|
G-------------14---------------------------------------12-------------|
B---------------------------------------------------------------------|
E---------------------------------------------------------------------|

H P P P P P P H
E-14^17^14----19-14----17^14----19-14—-19^17--19^17-15^14-17^15^17-|
A----------15-------15-------15--------------------------------------|
D--------------------------------------------------------------------|
G--------------------------------------------------------------------|
B--------------------------------------------------------------------|
E--------------------------------------------------------------------|

P H P P H P
E-15\-15^14^15-14\-14-12-10-12-10-8-15^12---12—--15^12---12^15^12--|
A----------------------------------------13---13------13-------------|
D--------------------------------------------------------------------|
G--------------------------------------------------------------------|
B--------------------------------------------------------------------|
E--------------------------------------------------------------------|

H P P P
E---12^15^12—-15^12—--15^12---17-12----12-17-12----12-17-12----12--|
A-13--------13-----13------13-------13----------13----------13---------|
D----------------------------------------------------------------------|
G----------------------------------------------------------------------|
B----------------------------------------------------------------------|
E----------------------------------------------------------------------|

P
E-17-12----17-17-\---20----17----19^17----19----17-17----------H---|
A-------13--------19----19----19-------19----19-------19-19--17^19-|
D------------------------------------------------------------------|
G------------------------------------------------------------------|
B------------------------------------------------------------------|
E------------------------------------------------------------------|


E---P-----------------H---15---P----------------------------------|
A-17^16-17-19-17-16-17^19----19^1716--17--19--19------------------|
D-----------------------------------------------------------------|
G-----------------------------------------------------------------|
B-----------------------------------------------------------------|
E-----------------------------------------------------------------|

H P H P H
E-14^15^14—14^15^1419^22-22-22-------------------------------------|
A---------17---------------------------------------------------------|
D--------------------------------------------------------------------|
G--------------------------------------------------------------------|
B--------------------------------------------------------------------|
E--------------------------------------------------------------------|

Body Prt2:

E-20-0-0-19-0-0-17-0-19-0-0-17-0-0-15-0-17-0-0-15-0-0-14-0--|
A-----------------------------------------------------------|
D-----------------------------------------------------------|
G-----------------------------------------------------------|
B-----------------------------------------------------------|
E-----------------------------------------------------------|

E-0-15-0-0-17-0-0-19-0-20-0-0-19-0-0-17-0-19-0-0-17-0-0-15--|
A-----------------------------------------------------------|
D-----------------------------------------------------------|
G-----------------------------------------------------------|
B-----------------------------------------------------------|
E-----------------------------------------------------------|

E-0-14-0-0-15-0-0-17-0-20-0-0-19-0-0-17-0-20-0-0-19-0-0-17--|
A-----------------------------------------------------------|
D-----------------------------------------------------------|
G-----------------------------------------------------------|
B-----------------------------------------------------------|
E-----------------------------------------------------------|

E-0-19-0-0-17-0-0-15-0-17-0-0-15-0-0-14-0-15-0-0-17-0-0-19--|
A-----------------------------------------------------------|
D-----------------------------------------------------------|
G-----------------------------------------------------------|
B-----------------------------------------------------------|
E-----------------------------------------------------------|

E-0-20-0-0-19-0-0-17-0-19-0-0-17-0-0-15-0-14-0-0-15-0-0-17--|
A-----------------------------------------------------------|
D-----------------------------------------------------------|
G-----------------------------------------------------------|
B-----------------------------------------------------------|
E-----------------------------------------------------------|


E-0-14--------------------------------------------------------|
A----------------------------7--------------------------------|
D--------/9WWWWWWWW7----------------9--7--9--7--10--9--7------|
G--------------------10-\ ------------------------------------|
B-------------------------------------------------------------|
E-------------------------------------------------------------|

E-------------------------------------------------------------|
A-----------------------------------7-------7-8-10-8-7---8-7--|
D---/9WWWWWWWW7------------------------9-8-9------------9-----|
G---------------10WWWWWWWW9--7-9-7-9--------------------------|
B-------------------------------------------------------------|
E-------------------------------------------------------------|

E--------------------------------------------------------------|
A--------------------------------------------------------------|
D--9-8-------8-9--9--9--X-X-X-X--9--9--X-X-X-X--7WW7WW7--2--5--|
G-------9-10------9--9--X-X-X-X--9--9--X-X-X-X--7WW7WW7--2--5--|
B-----------------7--7--X-X-X-X--7--7--X-X-X-X--5WW5WW5--0--3--|
E--------------------------------------------------------------|

E--------------------------------------------------------------|
A--------------------------------------------------------------|
D--7--9--9--X-X-X-X--9--9--X-X-X-X--7WW7WW7--2---2---2---2-----|
G--7--9--9--X-X-X-X--9--9--X-X-X-X--7WW7WW7--2->-2->-2->-2-----|
B--5--7--7--X-X-X-X--7--7--X-X-X-X--5WW5WW5--0---0---0---0-----|
E--------------------------------------------------------------|

E-------------------------------------------------------------|
A-------------------------------------------------------------|
D--2---2---2---2---5---5---5---5---7---7---7---7--9--9--X-X-X-|
G--2->-2->-2->-2->-5->-5->-5->-5->-7->-7->-7->-7--9--9--X-X-X-|
B--0---0---0---0---3---3---3---3---5---5---5---5--7--7--X-X-X-|
E-------------------------------------------------------------|

E-----------------------------------------------------------------|
A-----------------------------------------------------------------|
D-X--9--9—-X-X-X-X--7--7WW-7WW-2---2---2---2---5---5---5---5----|
G-X--9--9--X-X-X-X--7--7WW-7WW-2->-2->-2->-2->-5->-5->-5->-5->----|
B-X--7--7--X-X-X-X--5--5WW-5WW-0---0---0---0---3---3---3---3------|
E-----------------------------------------------------------------|

E---------------------------------------------------------------|
A---------------------------------------------------------------|
D--7---7---7---7--9--9--X-X-X-X--9--9--X-X-X-X--9--9WW--9WW-----|
G--7->-7->-7->-7--9--9--X-X-X-X--9--9--X-X-X-X--9--9WW--9WW-14\-|
B--5---5---5---5--7--7--X-X-X-X--7--7--X-X-X-X--7--7WW--7WW-14\-|
E-----------------------------------------------------------12\-|

E---------------------------------------------------------------|
A---------------------------------------------------------------|
D--9--9--X-X-X-X--9--9--X-X-X-X--9--9WW--9WW--------------------|
G--9--9--X-X-X-X--9--9--X-X-X-X--9--9WW--9WW-14\----------------|
B--7--7--X-X-X-X--7--7--X-X-X-X--7--7WW--7WW-14\----------------|
E--------------------------------------------12\----------------|

E-20-0-0-19-0-0-17-0-19-0-0-17-0-0-15-0-17-0-0-15-0-0-14-0-----|
A--------------------------------------------------------------|
D--------------------------------------------------------------|
G--------------------------------------------------------------|
B--------------------------------------------------------------|
E--------------------------------------------------------------|

E-0-15-0-0-17-0-0-19-0-20-0-0-19-0-0-17-0-19-0-0-17-0-0-15-----|
A--------------------------------------------------------------|
D--------------------------------------------------------------|
G--------------------------------------------------------------|
B--------------------------------------------------------------|
E--------------------------------------------------------------|

E-0-14-0-0-15-0-0-17-0-20-0-0-19-0-0-17-0-20-0-0-19-0-0-17--|
A-----------------------------------------------------------|
D-----------------------------------------------------------|
G-----------------------------------------------------------|
B-----------------------------------------------------------|
E-----------------------------------------------------------|

E-0-19-0-0-17-0-0-15-0-17-0-0-15-0-0-14-0-15-0-0-17-0-0-19--|
A-----------------------------------------------------------|
D-----------------------------------------------------------|
G-----------------------------------------------------------|
B-----------------------------------------------------------|
E-----------------------------------------------------------|

E-0-20-0-0-19-0-0-17-0-19-0-0-17-0-0-15-0-14-0-0-15-0-0-17--|
A-----------------------------------------------------------|
D-----------------------------------------------------------|
G-----------------------------------------------------------|
B-----------------------------------------------------------|
E-----------------------------------------------------------|

E-0-20-0-0-19-0-0-17-0-20-0-0-19-0-0-17-0-19-0-0-17-0-0-15--|
A-----------------------------------------------------------|
D-----------------------------------------------------------|
G-----------------------------------------------------------|
B-----------------------------------------------------------|
E-----------------------------------------------------------|

E-0-17-0-0-15-0-0-14-0-15-0-0-17-0-0-19-0-20-0-0-19-0-0-17--|
A-----------------------------------------------------------|
D-----------------------------------------------------------|
G-----------------------------------------------------------|
B-----------------------------------------------------------|
E-----------------------------------------------------------|

E-0-19-0-0-17-0-0-15-0-14-0-0-15-0-0-17-0-20-0-0-19-0-0-17--|
A-----------------------------------------------------------|
D-----------------------------------------------------------|
G-----------------------------------------------------------|
B-----------------------------------------------------------|
E-----------------------------------------------------------|

E-0-20-0-0-19-0-0-17-0-19-0-0-17-0-0-15-0-17-0-0-15-0-0-14--|
A-----------------------------------------------------------|
D-----------------------------------------------------------|
G-----------------------------------------------------------|
B-----------------------------------------------------------|
E-----------------------------------------------------------|

E-0-15-0-0-17-0-0-19-0-20-0-0-19-0-0-17-0-19-0-0-17-0-0-15-0-|
A------------------------------------------------------------|
D------------------------------------------------------------|
G------------------------------------------------------------|
B------------------------------------------------------------|
E------------------------------------------------------------|

E-14-0-0-15-0-0-17-0-15-0-0-17-0-0-19-0-17-0-0-19-0-0-20-0--|
A-----------------------------------------------------------|
D-----------------------------------------------------------|
G-----------------------------------------------------------|
B-----------------------------------------------------------|
E-----------------------------------------------------------|

FULL→ FULL ~~~
E-22‎-22Λ20---22---14\---------------------------------------|
A---------------------------------------------------------------|
D---------------------------------------------------------------|
G---------------------------------------------------------------|
B---------------------------------------------------------------|
E---------------------------------------------------------------|
Related for Deamedo Icchookusen tab