Song name
# A B C D E F G H I J K L M N O P Q R S T U V W X Y Z

Sex Pistols - Schools Are Prisons tab

*--palm mute
intro
e-----------0-|
b---------0---|
g-------1-----|
D-----2-------|
A---2---------|
E-0-----------|

e-------------------------0--------------------------0-|
b-------------------------2--------------------------0-|
g-7-6-6-4-4---------------2--7-6-6-4-4---------------1-|
D-7-6-6-4-4-5-4-4-4-4-4-4-2--7-6-6-4-4-5-4-4-4-4-4-4-2-|
A-5-4-4-2-2-5-4-4-4-4-4-4-0--5-4-4-2-2-5-4-4-4-4-4-4-2-|
E-----------3-2-2-2-2-2-2--------------3-2-2-2-2-2-2-0-|
              ***********                ***********

Verse/ Chorus
 A G# C# G# A G# C# G# D F# G# D F# G#
e---------------------------------------|
b---------------------------------------|
g------6----------6-----7-------7-------|
D-7----6-----7----6-----7-4-----7-4--6--|
A-7-6--4--6--7-6--4--6--5-4--6--5-4--6--|
E-5-4-----4--5-4-----4----2--4----2--4--|

Break:
 D C# B G F# E
e-------------0-|
b-------------0-|
g-7-6--4------1-|
D-7-6--4-5-4--2-|
A-5-4--2-5-4--2-|
E--------3-2--0-|

To get the proper structure, listen to the "Pirates of Destiny" album.
Tap to rate this tab
# A B C D E F G H I J K L M N O P Q R S T U V W X Y Z