Song name
# A B C D E F G H I J K L M N O P Q R S T U V W X Y Z

Sex Pistols - Friggin In The Riggin tab

Help us improve GuitareTab! Take a short survey!
                        The Sex Pistols
                      Friggin in the Riggin

x- fretting
/\- slide up and down

verse
-------------------------------------------------------------------------|
-------------------------------------------------------------------------|
-------------------------------------------------------------------------|
-------------------------------------------------------------------------|
-------------------------------------------------------------------------|
-0-0-0-2/4-4-4-4-0-0-2/4-4-4-4-0-0-2/4-4-4-4-6-6-6-6-6-0-0-2-0-0-2/4-4-4-|
''it was on the good ship venus, by christ she should of seen us''


chorus ''friggin in the riggin coz there's fuck all else to do''
----------------------------------------------------|
----------------------------------------------------|
----------------------------------------------------|
----------------------------------------------------|
----------------------------------------------------|
-5-5-5-0-2/3---7-7-7-0-2/3---7-7-7--7-9-9-9-0-2/3-3-|

''hold on give it some bollocks''
----------------------------------|
----------------------------------|
----------------------------------|
----x-x-x-x-x-x-x-x-x-x-x-x-x-x-x-|
-5*-x-x-x-x-x-x-x-x-x-x-x-x-x-x-x-|
-3*-x-x-x-x-x-x-x-x-x-x-x-x-x-x-x-|


-------------|
-------------|
-------------|
-x-x-0-x-x-0-|
-x-x-0-x-x-0-|
-x-x-0-x-x-0-|

this song doesn't really have a riff to it so be creative with the verse and chorus.
Related for Friggin In The Riggin tab