Guitaretab - guitar tabs
Song name
# A B C D E F G H I J K L M N O P Q R S T U V W X Y Z

Sex Pistols - Seventeen tab

-------------------------------------------------------------------------------
			     Seventeen - Sex Pistols
-------------------------------------------------------------------------------
Tabbed by: LN237

| b bend
| /  slide up
| \  slide down
| h  hammer-on
| p  pull-off
| ~  vibrato
| +  harmonic
| x  Mute note

Tuning: EBGDAE

Intro:

Guitar 1

e|------------------------------------------------------------------|
B|------------------------------------------------------------------|
G|-7-----------7-----------7-----9----------------------------------|
D|-7-----7-----7-----7-----7-----9----------------------------------|
A|-5-----7-----5-----7-----5-----7----------------------------------|
E|-------5-----------5----------------------------------------------|

Guitar 2

e|-------------------------------------------------------------------------------------|
B|-------------------------------------------------------------------------------------|
G|-5b---------5b----------5b-----------------------------------------------------------|
D|------7b----------7b-----------2b-(this note is hard to hear but its there)----------|
A|-------------------------------------------------------------------------------------|
E|-------------------------------------------------------------------------------------|

Verse
Listen to track to get the right rhythm, this is just the chord progression

"your only 29..."
e|-------------------------------------------------------------------|
B|-------------------------------------------------------------------|
G|------7---------9---------7----9-----------------------------------|
D|-7----7----7----9----7----7----9-----------------------------------|
A|-7----5----7----7----7----5----7-----------------------------------|
E|-5---------5---------5---------------------------------------------|
do this four times, then

Chorus:

"I'm a lazy sod..."
e|-----------------------------------------------------------------------------|
B|-----------------------------------------------------------------------------|
G|-7-----------7-----------7-----9---------------------------------------------|
D|-7-----7-----7-----7-----7-----9---------------------------------------------|
A|-5-----7-----5-----7-----5-----7---------------------------------------------|
E|-------5-----------5---------------------------------------------------------|
[ Tab from: http://www.guitaretab.com/s/sex-pistols/139958.html ]
"I'm so laaaaaazy..."
e|------------------------------------------------------------------------------|
B|------------------------------------------------------------------------------|
G|------------------------------------------------------------------------------|
D|-7----------------------------------------------------------------------------|
A|-7----------------------------------------------------------------------------|
E|-5----------------------------------------------------------------------------|

If you want to get that messy sound thats right before the bridge bit do a kind of half 
sloppy pick slide, that will get you the sound of the track.

Bridge bit:

e|-----------------------------------------------------------------------------|
B|-----------------------------------------------------------------------------|
G|------------------------------------------------7-7-------7-7----------------|
D|-4-4x-4x-4x-4x-4x-4x--5-5x-5x-5x-5x-5x-5x--7--7-7--7-7--7-7------------------|
A|-4-4x-4x-4x-4x-4x-4x--5-5x-5x-5x-5x-5x-5x--7--5-5--7-7--5-5------------------|
E|-2-2x-2x-2x-2x-2x-2x--3-3x-3x-3x-3x-3x-3x--5-------5-5-----------------------|

e|-----------------------------------------------------------------------------|
B|-----------------------------------------------------------------------------|
G|------------------------------------------------7-7------9-9-9-9------------|
D|-4-4x-4x-4x-4x-4x-4x--5-5x-5x-5x-5x-5x-5x--7--7-7--7-7-9-9-9-9--------------|
A|-4-4x-4x-4x-4x-4x-4x--5-5x-5x-5x-5x-5x-5x--7--5-5--7-7--7-7-7-7--------------|
E|-2-2x-2x-2x-2x-2x-2x--3-3x-3x-3x-3x-3x-3x--5-------5-5-----------------------|

then-
Chorus
"I'm a lazy sod..."
e|-----------------------------------------------------------------------------|
B|-----------------------------------------------------------------------------|
G|-7-----------7-----------7-----9---------------------------------------------|
D|-7-----7-----7-----7-----7-----9---------------------------------------------|
A|-5-----7-----5-----7-----5-----7---------------------------------------------|
E|-------5-----------5---------------------------------------------------------|

then:

e|------------------------------------------------------------------|
B|------------------------------------------------------------------|
G|-7-----------7-----------7-----9----------------------------------|
D|-7-----7-----7-----7-----7-----9----------------------------------|
A|-5-----7-----5-----7-----5-----7----------------------------------|
E|-------5-----------5----------------------------------------------|

end:

e|------------------------------------------------------------------------------------|
B|------------------------------------------------------------------------------------|
G|-9----------------------------------------------------------------------------------|
D|-9----------------------------5-6-7-------------------------------------------------|
A|-7-(carry on with this chord until-)-5-6-7------------------------------------------|
E|-------------------------------3-4-5------------------------------------------------|
Related for Seventeen tab