Song name
# A B C D E F G H I J K L M N O P Q R S T U V W X Y Z

Sex Pistols - New York tab

Help us improve GuitareTab! Take a short survey!
Song: New York
Artist: Sex Pistols
Album: Nevermind the Bollocks, heres the Sex Pistols

Tabbed By Duke Lukem


Intro

e -----------------|          
B -----------------|            
G -----------------|             
D 4-4-2**-2-2-2**2-|
A 4-4-0**-0-0-2**2-|
E 2-2---------0**0-|

Solo 1

e -----------------------|
B -----------------------|
G 9-9-7-7-6-6-4-4-2-2-4~~|
D -----------------------|
A -----------------------|
E -----------------------|

Verse 1

e ----------------|
B ----------------|
G ----------------|
D 4-4-4-x-2-2-2-x-|
A 2-2-2-x-0-0-0-x-|   play this six times
E ----------------|

e ---------------------|
B ---------------------|
G 4-4-2-2-7-7---4m-4-4-|
D 4-4-2-2-7-7---4m-4-4-|
A 2-2-0-0-5-5-0-2m-2-2-|
E ---------------------|

Chorus 1

            
e ------------------------|
B ------------------------|
G 9-9m-9-9-9--9-9-9-9-9-9-|
D 9-9m-9-9-9--9-9-9-9-9-9-|
A 7-7m-7-7-7--7-7-7-7-7-7-|
E ------------------------|

e ----------------------|
B ----------------------|
G ----------------------|
D 4-4-4-2-2-2-2-2**-2**-|
A 4-4-4-0-0-2-2-2**-2**-|
E 2-2-2-----0-0-0**-0**-|

Break

e ---------------------------------------------------|
B ---------------------------------------------------|
G 4-4--4-2-2--2-4-4--4-2-2--2-4-4--4-2-2--2-4-4*****-|
D 4-4--4-2-2--2-4-4--4-2-2--2-4-4--4-2-2--2-4-4*****-|
A 2-2--2-0-0--0-2-2--2-0-0--0-2-2--2-0-0--0-2-2*****-|
E ---------------------------------------------------|

Verse 2

e ----------------|
B ----------------|
G ----------------|
D 4-4-4-x-2-2-2-x-|
A 2-2-2-x-0-0-0-x-|   play this six times
E ----------------|

e ---------------------|
B ---------------------|
G 4-4-2-2-7-7---4m-4-4-|
D 4-4-2-2-7-7---4m-4-4-|
A 2-2-0-0-5-5-0-2m-2-2-|
E ---------------------|

Chorus 2

e ------------------------|
B ------------------------|
G 9-9m-9-9-9--9-9-9-9-9-9-|
D 9-9m-9-9-9--9-9-9-9-9-9-|
A 7-7m-7-7-7--7-7-7-7-7-7-|
E ------------------------|

e ----------------------|
B ----------------------|
G ----------------------|
D 4-4-4-2-2-2-2-2**-2**-|
A 4-4-4-0-0-2-2-2**-2**-|
E 2-2-2-----0-0-0**-0**-|

Break

e ---------------------------------------------------|
B ---------------------------------------------------|
G 4-4--4-2-2--2-4-4--4-2-2--2-4-4--4-2-2--2-4-4*****-|
D 4-4--4-2-2--2-4-4--4-2-2--2-4-4--4-2-2--2-4-4*****-|
A 2-2--2-0-0--0-2-2--2-0-0--0-2-2--2-0-0--0-2-2*****-|
E ---------------------------------------------------|

Bridge

e --------------------------------------------------|
B --------------------------------------------------|
G /9-9-/7-7-/4-4------------/9-9-/7-7-/12-12-12-12v-|
D ----------------/5m-5-5---------------------------|
A --------------------------------------------------|
E --------------------------------------------------|

e ------------------------------------------------------------------------|
B ------------------------------------------------------------------------|
G /9-9-/7-7-/4-4----------------------------------------------------------|
D ----------------/5m-5-5--0-2-2-2-2-2-2-/4***************----------------|
A ------------------------------------------4-4-4-4-4-4-4-4-4-4-4-4-4-4-4-|
E ------------------------------------------2-2-2-2-2-2-2-2-2-2-2-2-2-2-2-|

Break

e ---------------------------------------------------|
B ---------------------------------------------------|
G 4-4--4-2-2--2-4-4--4-2-2--2-4-4--4-2-2--2-4-4*****-|
D 4-4--4-2-2--2-4-4--4-2-2--2-4-4--4-2-2--2-4-4*****-|
A 2-2--2-0-0--0-2-2--2-0-0--0-2-2--2-0-0--0-2-2*****-|
E ---------------------------------------------------|

Solo 2

e ---------------------------------------------------------------|
B ---------------------------------------------------------------|
G 8-8-9-8-6*-7-6--8-8-9-8-6*-7-6--8-8-9-8-6*-7-6--8-8-9-8-6*-7-6-|
D 9-9-9-9-7*-7-7--9-9-9-9-7*-7-7--9-9-9-9-7*-7-7--9-9-9-9-7*-7-7-|
A ---------------------------------------------------------------|
E ---------------------------------------------------------------|

e -----------------------------------------------------------------------|
B -----------------------------------------------------------------------|
G 8-8-9-8-6*-7-6--8-8-9-8-6*-7-6--8-8-9-8-6*-7-6--8-8-9-8-6*-7-6---------|
D 9-9-9-9-7*-7-7--9-9-9-9-7*-7-7--9-9-9-9-7*-7-7--9-9-9-9-7*-7-7--7-9***-|
A -----------------------------------------------------------------------|
E -----------------------------------------------------------------------|

Verse 3

e ----------------|
B ----------------|
G ----------------|
D 4-4-4-x-2-2-2-x-|
A 2-2-2-x-0-0-0-x-|   play this six times
E ----------------|

e ---------------------|
B ---------------------|
G 4-4-2-2-7-7---4m-4-4-|
D 4-4-2-2-7-7---4m-4-4-|
A 2-2-0-0-5-5-0-2m-2-2-|
E ---------------------|

Chorus 3

e ------------------------|
B ------------------------|
G 9-9m-9-9-9--9-9-9-9-9-9-|
D 9-9m-9-9-9--9-9-9-9-9-9-|
A 7-7m-7-7-7--7-7-7-7-7-7-|
E ------------------------|

e --------------------------------------|
B --------------------------------------|
G 2-2-----------------------------------|
D 2-2--4-4------------------------------|
A 0-0--4-4--4-4-4-4-4-4-4-4-4-4-4-4-4-4-|
E -----2-2--2-2-2-2-2-2-0-2-2-2-0-2-2-2-|

e ------------------|
B ------------------|
G 2-2---------------|
D 2-2-------2-------|
A 0-0--0-0--2**-2-2-|
E ----------0**-0-0-|

Outro

e ------------|
B ------------|
G ------------|
D 4-4-x-9-9-x-|
A 2-2-x-7-7-x-| play this 8 times
E ------------|

Solo 3

e 12------------12--12--------12--12--------12--12--------12--12-|
B 12------------12--12--------12--12--------12--12--------12--12-|
G --------14b-----------14b-----------14b-----------14b----------|
D ---------------------------------------------------------------|
A ---------------------------------------------------------------|
E ---------------------------------------------------------------|

e ------12--12--------12--12--------12--12--------12--12--------12--12-|
B ------12--12--------12--12--------12--12--------12--12--------12--12-|
G 14b-----------14b-----------14b------------14b-----------14b---------|
D ---------------------------------------------------------------------|
A ---------------------------------------------------------------------|
E ---------------------------------------------------------------------|

e ------12---------------12---------12---------12---------12---------12-|
B ------12--------12h14------12h14------12h14------12h14------12h14-----|
G 14b-------14b---------------------------------------------------------|
D ----------------------------------------------------------------------|
A ----------------------------------------------------------------------|
E ----------------------------------------------------------------------|

e --------12--------12---------12--------12--------12--------12--------12-|
B 12h14------12h14-----12h14------12h14-----12h14-----12h14-----12h14-----|
G ------------------------------------------------------------------------|
D ------------------------------------------------------------------------|
A ------------------------------------------------------------------------|
E ------------------------------------------------------------------------|

e ----------12---------12---------12-------------------------------------|
B ---12h14------12h14------12h14------12----12----12----12----12----12---|
G ------------------------------------14b---14b--14b---14b---14b----14b--|
D -----------------------------------------------------------------------|
A -----------------------------------------------------------------------|
E -----------------------------------------------------------------------|

e -------------------------------------------------------------|
B ---12----12----12------10----9-----7----7-----7--------------|
G ---14b---14b---14br----12b---11b---9b---7-----7--------------|
D -------------------------------------------9-----9--7--9-9v--|
A -------------------------------------------------------------|
E -------------------------------------------------------------|

e ------------|
B ------------|
G 4**********-|
D 4**********-|
A 2**********-|
E ------------|



v = vibrato
m = play note then mute
x = dead note
b = bend 
* = let ring
pm* = palm mute
br = bend and release











Related for New York tab