Song name
# A B C D E F G H I J K L M N O P Q R S T U V W X Y Z

Sex Pistols - Roadrunner tab

                             Sex pistols-Roadrunner

      Main Riff:
     E-----------------------------|
     B-----------------------------|
     G-----------------------------|
     D-------------------------7-7-|
     A-7-7-7-7-7-7-7-7-7-7-7-7-5-5-|
     E-5-5-5-5-5-5-5-5-5-5-5-5-----|
    pm.***********************

      Other riff

     E-----------------------------------|
     B-----------------------------------|
     G-----------------------------------|
     D-------------------------7-7-7-7-7-|
     A-7-7-7-7-7-7-7-7-7-7-7-7-5-5-5-5-5-|
     E-5-5-5-5-5-5-5-5-5-5-5-5-----------|
    pm.***********************

    That's pretty much it it's pretty simple anf just ad-lib the solos
Tap to rate this tab
 
# A B C D E F G H I J K L M N O P Q R S T U V W X Y Z