Song name
# A B C D E F G H I J K L M N O P Q R S T U V W X Y Z

Sex Pistols - Substitute tab

e|----------------------------------------|
B|----------------------------------------|
G|-8-8---------8-8------------------------|
D|-8-8-8---8-6-8-8------------------------|
A|-6-6-8---8-6-6-6------------------------|
E|-----6---6-4----------------------------|

OR

e|-2-2----------2----------------------|
B|-3-3----------3----------------------|
G|-2-2--2-0-0-0-2----------------------|
D|------2-0-0-0------------------------|
A|------2-0-0-0------------------------|
E|-------------------------------------|

LISTEN TO THE TRACK FOR WHEN IT IS PLAYED BUT IT GOES LIKE THIS ::

e|---------------------------------------------------------------------|
B|---------------------------------------------------------------------|
G|-8-8-------8-8---------------------------8-8---8---8-8---------------|
D|-8-8--6-6--8-8---------------------------8-8-8-8-8-8-8-8-6-----------|
A|-6-6--6-6--6-6---------------------------6-6-8-6-8-6-6-8-6-----------|
E|------4-4------------------------------------6---6-----6-4-----------|


I was born with a plastic spoon in my mouth
Tap to rate this tab
 
# A B C D E F G H I J K L M N O P Q R S T U V W X Y Z