Song name
# A B C D E F G H I J K L M N O P Q R S T U V W X Y Z

Sex Pistols - Cmon Everybody tab

Nice song, no one had tabbed it so had extra 15 minutes do it, enjoy.

Intro
  G     C     D     C    G
E------------------------------|
B------------------------------|
G-------5-----7-----5----------|
D--5----5-----7-----5----5-----|
A--5----3-----5-----3----5-----|
E--3---------------------3-----|

Verse
 C# D D D Etc.
E-------------------------------------------------|
B-------------------------------------------------|
G-6/7-7-7-6/7-7-7-6/7-7-7-6/7-7-7-6/7--7-7-7--7-7-|
D-6/7-7-7-6/7-7-7-6/7-7-7-6/7-7-7-6/7--7-7-7--7-7-|
A-4/5-5-5-4/5-5-5-4/5-5-5-4/5-5-5-4/5--5-5-5--5-5-|
E-------------------------------------------------|

Chorus

  G     D    G    D    G
E------------------------------------------------|
B------------------------------------------------|
G-------7---------7------------------------------|
D--5----7----5----7-----5------------------------|
A--5----5----5----5-----5------------------------|
E--3---------3----------3------------------------|
Basicly that repeat's itself for the whole song
expect this part down where you just bend the
ninth fret on the G-string

1.16
E----
B----
G-9brb
D----
A----
E----
Tap to rate this tab
# A B C D E F G H I J K L M N O P Q R S T U V W X Y Z