Song name
# A B C D E F G H I J K L M N O P Q R S T U V W X Y Z

Sex Pistols - Im Not Your Stepping Stone tab

Artist:  Sex Pistols
Song:  I'm Not Your Stepping Stone
Tabbed by:  Rick (RCGoalie1@aol.com)
AIM:  unhlax23


Intro:

   A5
E|-----|
B|-----|
G|-----|
D|--7--|
A|--7--|
E|--5--|

Intro 2/Verse
 
     A5       C5          D5        F2
E|----------------------------------------------------------------------------|
B|----------------------------------------------------------------------------|
G|----------------------7-7-7-7-10-10-10-10-----------------------------------|
D|-7-7-7-7-10-10-10-10--7-7-7-7-10-10-10-10-----------------------------------|
A|-7-7-7-7-10-10-10-10--5-5-5-5--8--8--8--8-----------------------------------|
E|-5-5-5-5--8--8--8--8--------------------------------------------------------|
  |----------------------------------------|
                  palm mute

Chorus:

     A5       C5           D5        F2        A5       G5     F#5     F5
E|----------------------------------------------------------------------------|
B|----------------------------------------------------------------------------|
G|----------------------7-7-7-7-10-10-10-10-----------------------------------|
D|-7-7-7-7-10-10-10-10--7-7-7-7-10-10-10-10--7-7-7-7-5-5-5-5-4-4-4-4-3-3-3-3--|
A|-7-7-7-7-10-10-10-10--5-5-5-5--8--8--8--8--7-7-7-7-5-5-5-5-4-4-4-4-3-3-3-3--|
E|-5-5-5-5--8--8--8--8-----------------------5-5-5-5-3-3-3-3-2-2-2-2-1-1-1-1--|

I'm sorry I don't know the solos.  But that should be everything.
Email me if you need anything, and rate this please.  Later.
Tap to rate this tab
# A B C D E F G H I J K L M N O P Q R S T U V W X Y Z