Song name
# A B C D E F G H I J K L M N O P Q R S T U V W X Y Z

Sex Pistols - Watcha Gonna Do About It chords

-------------------------------------------------------------------------------
			     Whatcha Gonna Do About It? - Sex Pistols
-------------------------------------------------------------------------------
Tabbed by:
Email:

Tuning: Standard

Verse (Repeat Untill Chorus)

e|--------------------------------------------------------------------|
B|--------------------------------------------------------------------|
G|----9-x-9-x-9-x-9--7-x-7-x-7-x-7------------------------------------|
D|----9-x-9-x-9-x-9--7-x-7-x-7-x-7------------------------------------|
A|----7-x-7-x-7-x-7--5-x-5-x-5-x-5------------------------------------|
E|--------------------------------------------------------------------|

Chorus:

e|----------------------------------------------------------------------------|
B|----------------------------------------------------------------------------|
G|----9-9-9-9-x-7-7-7-7-x-9-9-9-9-x-------------------------------------------|
D|----9-9-9-9-x-7-7-7-7-x-9-9-9-9-x-7-7-7-7-x---------------------------------|
A|----7-7-7-7-x-5-5-5-5-x-7-7-7-7-x-7-7-7-7-x---------------------------------|
E|----------------------------------5-5-5-5-x---------------------------------|

Repeat Twice for chorus ^^

Chorus Can Also Be Played Like This (Both Sound Fine):

e|---------------------------------------------------------------------------|
B|---------------------------------------------------------------------------|
G|----9-9-9-9-x-7-7-7-7-x-9-9-9-9-x-7-7-7-7-x--------------------------------|
D|----9-9-9-9-x-7-7-7-7-x-9-9-9-9-x-7-7-7-7-x--------------------------------|
A|----7-7-7-7-x-5-5-5-5-x-7-7-7-7-x-5-5-5-5-x--------------------------------|
E|---------------------------------------------------------------------------|


That's the whole song as far as i can hear. I based this TAB on the version
included on 'The Great Rock 'n' Roll Swindle' and them playing it live at 'Manchester 
Free Trade Hall on 4-6-1976' which i found on YouTube. Let me know if there are any 
needed.
I know it's a pretty cliche thing to say by now but this is my first TAB so don't be too harsh.
I think it sounds right so in a way...I don't give a shit what you think.
Tap to rate this tab
# A B C D E F G H I J K L M N O P Q R S T U V W X Y Z