Song name
# A B C D E F G H I J K L M N O P Q R S T U V W X Y Z

Sex Pistols - Streets Of London tab

STREETS OF LONDON INTRO


Tabbed By:-

Abhimanyu Jain

This sounds much better than anything I found on the net.


E---------------------------------------------------|
B-----8---8-8-6--5--6--8~----3--5--6~----5--6--8~---|
G-----6---6-6-4--3--4--6~----1--3--4~----3--4--6~---|
D---------------------------------------------------|
A---------------------------------------------------|
E---------------------------------------------------|


E-------------------------------------------------|
B-----8---8-8-6--5--6--8~----3--6--5--------------|
G-----6---6-6-4--3--4--6~----1--4--3--6~----------|
D-------------------------------------4~----------|
A-------------------------------------------------|
E-------------------------------------------------|
Tap to rate this tab
# A B C D E F G H I J K L M N O P Q R S T U V W X Y Z