Song name
# A B C D E F G H I J K L M N O P Q R S T U V W X Y Z

Sex Pistols - Did You No Wrong tab

Intro

|--------------------------|
|--------------------------|
|--------------------------|
|--11-9999999999999999-----|
|--11-9999999999999999-----|
|--9--7777777777777777-----|


Verse

|------------------------|
|------------------------|
|-------------99-7-999---|
|--99999-7777-99-7-999---|
|--99999-7777-77-5-777---|
|--77777-5555------------|


Chorus

|------------------------------------------------|
|------------------------------------------------|
|---16-16-14-14-11119-7-9-9-7--------------------|
|---16-16-14-14-11119-7-9-9-7-9999999999999999---|
|---14-14-12-12-9-9-7-5-7-7-5-9999999999999999---|
|-----------------------------7777777777777777---|


Solo

|----------------------------------------|
|----------------------------------------|
|----------------------------------------|
|----------------------------------------|
|----------------------------777777777---|
|--77777777777777777555555555------------|


Ending

|----------------------------------|
|----------------------------------|
|---16-13-14-14-11119-7-9-9-7------|
|---16-13-14-14-11119-7-9-9-7-9----|
|---14-11-12-12-9-9-7-5-7-7-5-9----|
|-----------------------------7----|
Tap to rate this tab
# A B C D E F G H I J K L M N O P Q R S T U V W X Y Z