Song name
# A B C D E F G H I J K L M N O P Q R S T U V W X Y Z

Sex Pistols - New York tab

-------------------------------------------------------------------------------
			     SONG NAME  NEW YORK, Sex Pistols
-------------------------------------------------------------------------------
Tabbed by: Andym-uk11
Email:

Tuning: Standard


Intro riff after the 3 intro chords                   
e:--------------------------------------------|
b:--5--5--3--3--2--2--------------------------|
g:--------------------4--4--22/4-------------|
D:--------------------------------------------|
A:--------------------------------------------|
E:--------------------------------------------|

Ending
e:--------------------------------------------|
b:-12---12---12---12---12---12---12---12------|
g:-14b-14b-14b-14b--14b-14b-14b-14b-----|
D:--------------------------------------------|
A:--------------------------------------------|
E:--------------------------------------------|

e:------------------------------------------------------|
b:--12--------------------------------------------------|
g:--14b---9---12---9--7---9---7-----7-----7-------------|
D:-------------------------------9-----9-----9~~~~~~~---|
A:------------------------------------------------------|
E:------------------------------------------------------|

First tab after all these years of looking at everyone elses.
This is how I do it and it sounds ok to me?   

************************************

| /   slide up
| \   slide down
| h   hammer-on
| p   pull-off
| ~   vibrato
| +   harmonic
| x   Mute note
| b   Bend
| pb  Pre-bend
| br  Bend release
| pbr Pre-bend release
| brb Bend release bend

Tap to rate this tab
# A B C D E F G H I J K L M N O P Q R S T U V W X Y Z