Song name
# A B C D E F G H I J K L M N O P Q R S T U V W X Y Z

Sex Pistols - Holidays In The Sun tab

First off im just horrified that people submit half arsed tabs,which is why im 
100% accurate and made easy tabs for pro's and beginners,
you people should be ashamed of yourselves for submitting crap tabs that are not 
and in some cases totally wrong,so to make it more simple ive cut out the unnessesary bits to 
the page from being too long
so here goes: all the bits you need to know!

SEX PISTOLS - HOLIDAYS IN THE SUN - NEVER MIND THE BOLLOCKS

Intro:
            X4
e|----2-2-2-------|----------------------------------------|
B|----3-3-3-------|----------------------------------------|
G|----2-2-2-------|--------------5-5-4-4-2-2-2-------------|
D|----0-0-0-------|--slide-------5-5-4-4-2-2-2-x-5---------|
A|----------------|--X\\\\\\\\\\\3-3-2-2-0-0-0-x-5---------|
E|----------------|--X\\\\\\\\\\\--------------x-3---------|

e|------------------------3---------3--3---3---------|
B|------------------------3---------3--3---3---------|
G|--5-5-4-4-2-2-2---------0---------0--0---0---------|
D|--5-5-4-4-2-2-2-x-5-5---0---------0--0---0---------|
A|--3-3-2-2-0-0-0-x-5-5---x---------x--x---x---------|
E|----------------x-3-3---3---------3--3---3---------|

Verse:
e|-----------------------------------------------------------------|
B|-----------------------------------------------------------------|
G|-----------------------------------------------------------------|
D|-5-5-5-5-5-5-5-5-5-5-5---------5-5-5-5-5-5-5-5-5-5-5-5-----------|
A|-5-5-5-5-5-5-5-5-5-5-5-0-2-3-0-5-5-5-5-5-5-5-5-5-5-5-5-0-2-3-0---|
E|-3-3-3-3-3-3-3-3-3-3-3---------3-3-3-3-3-3-3-3-3-3-3-3-----------|


Pre Chorus:
e|-----------------------------------------------------------------|
B|-----------------------------------------------------------------|
G|-----------------------------------------------------------------|
D|-5-5-7-5-5-5-7-5-5-5-7-5-5-5-7-5-7-7-9-7-7-7-9-7-7-7-9-7-7-7-9-7-|
A|-3-3-3-3-3-3-3-3-3-3-3-3-3-3-3-3-5-5-5-5-5-5-5-5-5-5-5-5-5-5-5-5-|
E|-----------------------------------------------------------------|

Palm Muted*    (staring all night and there staring all day....
e|-----------------------------------------------------------------|
B|-----------------------------------------------------------------|
G|-2-2-2-2-2-2-2-2-7-7-7-7-7-7-7-7---------------------------------|
D|-2-2-2-2-2-2-2-2-7-7-7-7-7-7-7-5---------------------------------|
A|-0-0-0-0-0-0-0-0-5-5-5-5-5-5-5-5---------------------------------|
E|-----------------------------------------------------------------|

   (i got to go over and over the berlin wall....
e|-----------------------------------------------------------------|
B|-----------------------------------------------------------------|
G|-----------------------------2-2---2-2-2-2-----------------------|
D|-2-2---2-2-2-2-5-5---5-5-5-5-2-2---2-2-2-2-----------------------|
A|-2-2---2-2-2-2-5-5---5-5-5-5-0-0---0-0-0-0-----------------------|
E|-0-0---0-0-0-0-3-3---3-3-3-3-------------------------------------|


Chorus Fills:
e|------15-------15------15-15-|--------------15--------15--|
B|-15---15-15----15-15---15-15-|-15---15-15-----15---15-----|
G|-17^-----17^------17^--------|-17^-----17^----17^---------|
D|-----------------------------|----------------------------|
A|-----------------------------|----------------------------|
E|-----------------------------|----------------------------|

                                           Bridge:
e|-----------------15------15----------------|-----9--5-------|
B|-15----15-15-----15-15---15------------15--|-----------5----|
G|-17^------17^-------17^----------------17^-|----------------|
D|-------------------------------------------|----------------|
A|-------------------------------------------|----------------|
E|-------------------------------------------|----------------|

Solo:
e|--------------------10------10---------10-10-10------10-10-----10-----10--|
B|------------------x------10----10-10---10-10-10--10--10-10-10--10-10--10--|
G|-(2)------------------------------12^------------12^-------12^----12^-----|
D|--------------------------------------------------------------------------|
A|--------------------------------------------------------------------------|
E|--------------------------------------------------------------------------|


e|-10---10---10---10-------10-10------10-10-10--------10-10------10--10--|
B|-10---10---10---10---10--10-10-10---10-10-10---10---10-10-10---10--10--|
G|-11---11---11---11---12^-------12^-------------12^--------12-^---------|
D|-----------------------------------------------------------------------|
A|-----------------------------------------------------------------------|
E|-----------------------------------------------------------------------|


e|-(10)-10-----10-----10-----------10----10---10---10-----10-13-10----------|
B|-(10)-10-10--10-10--10----x--12^---12^---12^--12^--12^-----------13-12-10-|
G|---------12^----12^-------------------------------------------------------|
D|--------------------------------------------------------------------------|
A|--------------------------------------------------------------------------|
E|--------------------------------------------------------------------------|


e|----------------3-3-----3-3-3-3-------3-----3-3-3-------3-3------3-3-3----|
B|-------------3--3-3-3---3-3-3-3----3--3-3---3-3-3----3--3-3-3----3-3-3----|
G|-12-12^------5^-----5^-------------5^---5^-----------5^-----5^------------|
D|------slide|--------------------------------------------------------------|
A|--------------------------------------------------------------------------|
E|--------------------------------------------------------------------------|


and thats all you need to know without it dragging on
Rotter
mr_mozworth@yahoo.co.uk
Tap to rate this tab
# A B C D E F G H I J K L M N O P Q R S T U V W X Y Z