Song name
# A B C D E F G H I J K L M N O P Q R S T U V W X Y Z

Sex Pistols - Pretty Vacant tab

----------------------------------------------------------------------------
			     Pretty Vacant Sex Pistols                     
-----------------------------------------------------------------------------

Tabbed By : Finchy Lad 
e-mail: 

Tuning: Standard
Intro x 12 
G|--------|
D|--------|
A|00000000|
E|--------|

Verse
G|-----------------------------------|
D|-----------------------------------|
A|0-00-----5550-0-0|---------77777777|
E|----3-33|---------33333333|--------|

G|--------------------------------------------------------------|
D|--------------------------------------------------------------|
A|0-00-----5550-0-0|---------77777777|77777777|00000000|00003344|
E|----3-33|---------33333333|-----------------------------------|

1st Chorus:
G|-----------------------------------------------------------------------|
D|-----------------------------------------------------------------------|
A|55555555|33333333|00000000|00003344|55555555|33333333|00000000|00000000|
E|-----------------------------------------------------------------------|

2nd Verse 

2nd Chorus which is:
G|-----------------------------------------------------------------------|
D|-----------------------------------------------------------------------|
A|55555555|33333333|00000000|00003344|55555555|33333333|00000000|00003344|
E|-----------------------------------------------------------------------|

G|-------------------------------------------------------|
D|-------------------------------------------------------|
A|55555555|33333333|00000000|00000000|-------------------|
E|------------------------------------33333333|0---------|

Intro again x 4 
G|--------|
D|--------|
A|00000000|
E|--------|

3rd Verse 

3rd Chorus which is:
G|-----------------------------------------------------------------------|
D|-----------------------------------------------------------------------|
A|55555555|33333333|00000000|00003344|55555555|33333333|00000000|00003344|
E|-----------------------------------------------------------------------|

G|--------------------------------------------------------------|
D|--------------------------------------------------------------|
A|55555555|33333333|00000000|00000000|------------------000000--|
E|------------------------------------33333333|00000000|------33|

Outro x 10
G|--------|
D|--------|
A|000000--|
E|------33|

| /  slide up
| \  slide down
| h  hammer-on
| p  pull-off
| ~  vibrato
| +  harmonic
| x  Mute note
===============================================================================
Tap to rate this tab
# A B C D E F G H I J K L M N O P Q R S T U V W X Y Z