Song name
# A B C D E F G H I J K L M N O P Q R S T U V W X Y Z

Sex Pistols - Did You No Wrong tab

Intro
-----------------------------------------------------------------------------------|
-----------------------------------------------------------------------------------|
--4--2-----------------------------------------------------------------------------|
--0--0--4--2---2--2--2--2----------------------------------------------------------|
--------0--0---0--0--0--0-----9--9--11--9--9--9--11--9--9--9--11--9--9--9--11--9---|
------------------------------7--7---7--7--7--7---7--7--7--7---7--7--7--7---7--7---|

Verse (Guitar 1).
------------------------------------------------------|
------------------------------------------------------|
--------------------------9--9--9--9--9--9--9--9------|
--9--9--9--9--7--7--7--7--7--7--7--7--7--7--7--7------|
--7--7--7--7--5--5--5--5------------------------------|

Verse (Guitar 2).
--------------------------------------|
--12---10---12------------------------|
--11----9---11---12---13--------------|
---------------------------14---------|
--------------------------------------|
--------------------------------------|

Chorus 
------------------------------------------------------------------|
------------------------------------------------------------------|
--4--2------------------------------------------------------------|
--0--0--4--2-----2--2---------------------------------------------|
--------0--0--4--------4--9--9--11--9--9--9--11--9--9--9--11--9---|
--------------------------7--7---7--7--7--7---7--7--7--7---7--7---|

Guitar Break
--------------------|----------------------|--------------------------|
--------------------|----------------------|--------------------------|
---------4--4----4--|----------2--2----2---|-----------9--9-------9---|
---------4--4----4--|----------2--2----2---|-----------9--9-------9---|
--5--6--------6-----|---3--4--------4------|---10--11--------11-------|
--------------------|----------------------|--------------------------|
Tap to rate this tab
# A B C D E F G H I J K L M N O P Q R S T U V W X Y Z