Song name
# A B C D E F G H I J K L M N O P Q R S T U V W X Y Z

Sex Pistols - Cmon Everybody tab

"C'mon Everybody", as performed by The Sex Pistols
Tuning: Eb Ab Db Gb Bb eb

Intro:

eb|---------------------------------------------------------------------------|
Bb|---------------------------------------------------------------------------|
Gb|-----------------4---------------------------------------------------------|
Db|------2----4--2--2---------------------------------------------------------|
Ab|-2----0----2--0------------------------------------------------------------|
Eb|-0-------------------------------------------------------------------------| x2

Verse:
       Slide to the first 4/2 and then pick the last two (listen to the song to get the 
rhythm exactly right)
eb|---------------------------------------------------------------------------|
Bb|--3/444--3/444--3/444--3/444--3/4-4--4--44--44--4--------------------------|
Gb|--1/222--1/222--1/222--1/222--1/2-2--2--22--22--2--------------------------|
Db|---------------------------------------------------------------------------|
Ab|---------------------------------------------------------------------------|
Eb|---------------------------------------------------------------------------|   x2

Pre-chorus

eb|---------------------------------------------------------------------------|
Bb|---------------------------------------------------------------------------|
Gb|------------------------------------4--------------------------------------|
Db|--2-------4-------2-------4---------2--------------------------------------|
Ab|--0-------2-------0-------2------------------------------------------------|
Eb|---------------------------------------------------------------------------|
whoo, c'mon everybody!

The song basically repeats itself from here. Listen to it to get it 100%.. Not too hard. 
Good luck!
Tap to rate this tab
 
# A B C D E F G H I J K L M N O P Q R S T U V W X Y Z