Song name
# A B C D E F G H I J K L M N O P Q R S T U V W X Y Z

Sex Pistols - Revolution In The Classroom tab

-------------------------------------------------------------------------------
  		Revolution in the classroom - Sex Pistols
-------------------------------------------------------------------------------
Tabbed by:Justas M.
Email:dvyratiz@graffiti.net

Tuning:standart

Intro:

e|---------------------------------------------------------------------------|
B|---------------------------------------------------------------------------|
G|5-5--44-7------------------------------------------------------------------|
D|5-5--44-7--7-5-------------------------------------------------------------|
A|3-3--22-5--7-5-------------------------------------------------------------|
E|-----------5-3-------------------------------------------------------------|

Verse:

e|---------------------------------------------------------------------------|
B|---------------------------------------------------------------------------|
G|----5--4-22------5--4-22-----7--9-7-5-----7----5---7--4--------7-4--7-5-7--|
D|5---5--4-22--5---5--4-22---5-7--9-7-5---5-7--9-5---7--4--4-5---7-4--7-5-7-5|
A|5---3--2-00--5---3--2-00---5-5--7-5-3---5-5--9-3---5--2--4-5---5-2--5-3-5-5|
E|3------------3-------------3------------3----7-----------2-3--------------3|

Chorus:

e|---------------------------------------------------------------------------|
B|---------------------------------------------------------------------------|
G|----5--4-22----------------------------------------------------------------|X2
D|5---5--4-22--5-------------------------------------------------------------|
A|5---3--2-00--5-------------------------------------------------------------|
E|3------------3-------------------------------------------------------------|

Song structure:
Intro
Verse 1
Chorus
Verse 2
Chorus
Verse 3
Chorus
Verse 4
Chorus

| /  slide up
| \  slide down
| h  hammer-on
| p  pull-off
| ~  vibrato
| +  harmonic
| x  Mute note
===============================================================================
Tap to rate this tab
# A B C D E F G H I J K L M N O P Q R S T U V W X Y Z