Song name
# A B C D E F G H I J K L M N O P Q R S T U V W X Y Z

Sex Pistols - Great Rock N Roll Swindle tab

Artist: Sex Pistols
Song: The Great Rock 'N' Roll Swindle
Album: The Great Rock 'N' Roll Swindle
Tuning: Standard (EADGBE)

LEGEND:

s: slide

MAIN RIFF:

-------------------------|
-------------------------|
8-8-8-8-------5-5-3-3----|
8-8-8-8-8-8-8-5-5-3-3-6-6|
6-6-6-6-8-8-8-3-3-1-1-6-6|
--------6-6-6---------4-4|

-------------------|
-------------------|
8-8-8-8-------5-8-8|
8-8-8-8-8-8-8-5-8-8|
6-6-6-6-8-8-8-3-6-6|
--------6-6-6------|

The "They called us foul-mouthed yobs!" is right here:

-----------|
-----------|
-----------|
5s5-5-3s5-5|
3s5-5-3s5-5|
1s3-3-1s3-3| Play this for the first two lines before:

-----------------------|
-----------------------|
-----------------------|
7-7-7-7-7-7-3s5-5-3s5-5|
7-7-7-7-7-7-3s5-5-3s5-5|
5-5-5-5-5-5-1s3-3-1s3-3|
"But the only notes that really count..."

The above is played throughout the verse, with the playings of A5, F5 and G5. The chorus 
then played, which is the main riff. The main riff is shown at the top of the page.

Well, that's it! Enjoy, and let me know if anything's wrong!

kingtommyboy@hotmail.com
Tap to rate this tab
# A B C D E F G H I J K L M N O P Q R S T U V W X Y Z