Song name
# A B C D E F G H I J K L M N O P Q R S T U V W X Y Z

Sex Pistols - Dont Give Me No Lip Child tab

Help us improve GuitareTab! Take a short survey!
-----------------------------------------------------------------------------
	          DON'T GIVE ME NO LIP, CHILD - SEX PISTOLS
-----------------------------------------------------------------------------

Tabbed by: soldmysuol 7/23/07

Tuning: Standard

I searched the entire internet for the tab to this great song and couldnt find it so I 
my own. Sorry but there's no way I could ever figure out the solo.


BASS INTRO
e||----------------------------------|
B||----------------------------------|
G||----------------------------------|  X 4
D||----------------------------------|
A||---5-6-7---------4-4---4-5-5---5--|
E||--5------0-0---0------------------|


MAIN RIFF
e||----------------------------------|
B||--6-4--4-6--6-7--7-6-6------------|
G||--4-2--2-4--4-5--5-4-4------------|  X 6
D||----------------------------------|
A||----------------------------------|
E||----------------------------------|


FILL
e||----------------------------------|
B||----------------------------------|
G||--44444444------------------------|
D||--44444444------------------------|
A||--22222222------------------------|
E||----------------------------------|


e||----------------------------------|
B||--6-4--4-6--6-7--7-6-6------------|
G||--4-2--2-4--4-5--5-4-4------------|
D||----------------------------------|
A||----------------------------------|
E||----------------------------------|


e||--------------------------------------------------------------------|
B||--------------------------------------------------------------------|
G||--55555555-77777777----------7777-5-5-7--7777-5-5-7--7777-5-5-7--7--|
D||--55555555-77777777-55555555-7777-5-5-7--7777-5-5-7--7777-5-5-7--5--|
A||--33333333-55555555-55555555-5555-3-3-5--5555-3-3-5--5555-3-3-5--5--|
E||--------------------33333333----------------------------------------|


e||----------------------------------|
B||--6-4--4-6--6-7--7-6-6------------|
G||--4-2--2-4--4-5--5-4-4------------|  X 2
D||----------------------------------|
A||----------------------------------|
E||----------------------------------|


FILL
e||----------------------------------|
B||----------------------------------|
G||--44444444------------------------|
D||--44444444------------------------|
A||--22222222------------------------|
E||----------------------------------|


e||----------------------------------|
B||--6-4--4-6--6-7--7-6-6------------|
G||--4-2--2-4--4-5--5-4-4------------|
D||----------------------------------|
A||----------------------------------|
E||----------------------------------|


e||--------------------------------------------------------------------|
B||--------------------------------------------------------------------|
G||--55555555-77777777----------7777-5-5-7--7777-5-5-7--7777-5-5-7--7--|
D||--55555555-77777777-55555555-7777-5-5-7--7777-5-5-7--7777-5-5-7--5--|
A||--33333333-55555555-55555555-5555-3-3-5--5555-3-3-5--5555-3-3-5--5--|
E||--------------------33333333----------------------------------------|


e||----------------------------------|
B||--6-4--4-6--6-7--7-6-6------------|
G||--4-2--2-4--4-5--5-4-4------------|  X 6
D||----------------------------------|
A||----------------------------------|
E||----------------------------------|


FILL
e||----------------------------------|
B||----------------------------------|
G||--44444444------------------------|
D||--44444444------------------------|
A||--22222222------------------------|
E||----------------------------------|


e||--------------------------------------------------------------------|
B||--------------------------------------------------------------------|
G||--55555555-77777777----------7777-5-5-7--7777-5-5-7--7777-5-5-7--7--|
D||--55555555-77777777-55555555-7777-5-5-7--7777-5-5-7--7777-5-5-7--5--|
A||--33333333-55555555-55555555-5555-3-3-5--5555-3-3-5--5555-3-3-5--5--|
E||--------------------33333333----------------------------------------|


e||----------------------------------|
B||--6-4--4-6--6-7--7-6-6------------|
G||--4-2--2-4--4-5--5-4-4------------|  X 2
D||----------------------------------|
A||----------------------------------|
E||----------------------------------|


FILL
e||----------------------------------|
B||----------------------------------|
G||--44444444------------------------|
D||--44444444------------------------|
A||--22222222------------------------|
E||----------------------------------|


e||----------------------------------|
B||--6-4--4-6--6-7--7-6-6------------|
G||--4-2--2-4--4-5--5-4-4------------|
D||----------------------------------|
A||----------------------------------|
E||----------------------------------|


e||--------------------------------------------------------------------|
B||--------------------------------------------------------------------|
G||--55555555-77777777----------7777-5-5-7--7777-5-5-7--7777-5-5-7--7--|
D||--55555555-77777777-55555555-7777-5-5-7--7777-5-5-7--7777-5-5-7--5--|
A||--33333333-55555555-55555555-5555-3-3-5--5555-3-3-5--5555-3-3-5--5--|
E||--------------------33333333----------------------------------------|


e||----------------------------------|
B||--6-4--4-6--6-7--7-6-6------------|
G||--4-2--2-4--4-5--5-4-4------------| X 16
D||----------------------------------|
A||----------------------------------|
E||----------------------------------|


END
e||----------------------------------|
B||----------------------------------|
G||--2--2-4--4-5---------------------|
D||----------------------------------|
A||----------------------------------|
E||----------------------------------|
Related for Dont Give Me No Lip Child tab