Song name
# A B C D E F G H I J K L M N O P Q R S T U V W X Y Z

Sex Slaves - Long Live The Dead tab

-------------------------------------------------------------------------------
			     LONG LIVE THE DEAD - Sex Slaves
-------------------------------------------------------------------------------
Tabbed by: ironmanben
Email: bentrooper@gmail.com

Tuning: e B G D A E

-| x3                           | x1                          |
e|------------------------------|-----------------------------|
B|------------------------------|-----------------------------|
G|------------------------------|-----------------------------|
D|------------------------------|--------------------5--4--3--|
A|------------------------------|--------------------5--4--3--|
E|-0-0-0-0-3--0-0-0-0-5--0-0-6--|-0-0-0-0-3--0-0-0-0-3--2--1--|
   x x x x x  x x x x x  x x x    x x x x x  x x x x

-| x3                           | x1                          |
e|------------------------------|-----------------------------|
B|------------------------------|-----------------------------|
G|------------------------------|-----------------------------|
D|---------5----------7------8--|---------5----------5--4--3--|
A|-7-7-7-7-5--7-7-7-7-7--7-7-8--|-7-7-7-7-5--7-7-7-7-5--4--3--|
E|-0-0-0-0-3--0-0-0-0-5--0-0-6--|-0-0-0-0-3--0-0-0-0-3--2--1--|

e|---------------------------------------------------------|---------------|
B|---------------------------------------------------------|---------------|
G|-----7------------------7------------------7-------------|-x-x-7--x-x-7--|
D|-2---x-----7--8--9--2---x-----9--8--7--2---x-----7--8--9-|-x-x-7--x-x-7--|
A|-2---5-----7--8--9--2---5-----9--8--7--2---5-----7--8--9-|-x-x-5--x-x-5--|
E|-0------3--5--6--7--0------3--7--6--5--0------0--5--6--7-|-x-x----x-x----|

                                                           | x2            |
e|---------------------------------------------------------|---------------|
B|---------------------------------------------------------|---------------|
G|-----7------------------7------------------7-------------|-x-x-7--x-x-7--|
D|-2---x-----7--8--9--2---x-----9--8--7--2---x-----7--8--9-|-x-x-7--x-x-7--|
A|-2---5-----7--8--9--2---5-----9--8--7--2---5-----7--8--9-|-x-x-5--x-x-5--|
E|-0------3--5--6--7--0------3--7--6--5--0------0--5--6--7-|-x-x----x-x----|

e|-----------------------------------------------------------------------|
B|-----------------------------------------------------------------------|
G|-----------------------------------------------------------------------|
D|-----------------------------------------------------------------------|
A|-7-7-7-9-9-9-9-9-7-7-7-7-10-10-10\9-2-2-5-5-9-9-9-9-7-7-7-7-10-10-10\9-|
E|-0-0-0-7-7-7-7-7-5-5-5-5-8--8---8\7-0-0-3-3-7-7-7-7-5-5-5-5-8--8---8\7-|
   x x x x x x x x x x x x x  x   x   x x x x x x x x x x x x x  x   x  

e|-----------------------------------------------------------------------|
B|-----------------------------------------------------------------------|
G|-----------------------------------------------------------------------|
D|-----------------------------------------------------------------------|
A|-7-7-7-9-9-9-9-9-7-7-7-7-10-10-10\9-7-7-7-7-9-9-9-9-7-7-7-7-10-10-10---|
E|-0-0-0-7-7-7-7-7-5-5-5-5-8--8---8\7-0-0-0-0-7-7-7-7-5-5-5-5-8--8--8--0-|
   x x x x x x x x x x x x x  x   x   x x x x x x x x x x x x x  x  x  x

(Lead for verse:)
e|---------------10/12--------------12\10-------------------------10/12-|
B|---------------------------------------------------10/12--------------|
G|---------------------------------------------------------12---9-------|
D|----------------------------------------------------------------------|
A|----------------------------------------------------------------------|
E|----------------------------------------------------------------------|

e|---------------------------------|
B|---------------------------------|
G|---------------------------------|
D|---------------------------------|
A|-5-5-5-5-5-5-5-5-4-4-4-4-4-4-4-4-|
E|-3-3-3-3-3-3-3-3-2-2-2-2-2-2-2-2-|
   x x x x x x x x x x x x x x x x

e|-----------------------------------------------------------------|
B|-----------------------------------------------------------------|
G|----9----------------------7-7------9----------------------7---7-|
D|----9--------------7--7--7-7-7------9--------------7--7--7-7-xx7-|
A|-7--7--------------7--7--7-5-5---7--7--------------7--7--7-5-xx5-|
E|-0-----5-7brb(8)-3-5--5--5-5-5-0-0-----5-7brb(8)-3-5--5--5---xx--|

e|----------------------------------------------------|
B|----------------------------------------------------|
G|-----9----------------------7-7---------------------|
D|-----9--------------7--7--7-7-7-7-5-5-5-5-5-5-5-5-4-|
A|-7-7-7--------------7--7--7-5-5-7-5-5-5-5-5-5-5-5-4-|
E|-0-0----5-7brb(8)-3-5--5--5-5-5-5-3-3-3-3-3-3-3-3-2-|


e|-----------------------------|------------------------------|
B|-----------------------------|------------------------------|
G|-----------------------------|------------------------------|
D|-----------------------------|------------------------------|
A|-----------------------------|------------------------------|
E|-0--0-0-0-0-3--0-0-5--0-0-6--|-0-0-0-0-3--0-0-0-0-5--0-0-6--|

e|-----------------------------|-----------------------------|
B|-----------------------------|-----------------------------|
G|-----------------------------|-----------------------------|
D|-----------------------------|--------------------5--4--3--|
A|-----------------------------|--------------------5--4--3--|
E|-0--0-0-0-0-3--0-0-5--0-0-6--|-0-0-0-0-3--0-0-0-0-3--2--1--|

e|-----------------------------------------------------------------------|
B|-----------------------------------------------------------------------|
G|-----------------------------------------------------------------------|
D|-----------------------------------------------------------------------|
A|-7-7-7-9-9-9-9-9-7-7-7-7-10-10-10\9-2-2-5-5-9-9-9-9-7-7-7-7-10-10-10\9-|
E|-0-0-0-7-7-7-7-7-5-5-5-5-8--8---8\7-0-0-3-3-7-7-7-7-5-5-5-5-8--8---8\7-|
   x x x x x x x x x x x x x  x   x   x x x x x x x x x x x x x  x   x

e|-----------------------------------------------------------------------|
B|-----------------------------------------------------------------------|
G|-----------------------------------------------------------------------|
D|-----------------------------------------------------------------------|
A|-7-7-7-9-9-9-9-9-7-7-7-7-10-10-10\9-7-7-7-7-9-9-9-9-7-7-7-7-10-10-10---|
E|-0-0-0-7-7-7-7-7-5-5-5-5-8--8---8\7-0-0-0-0-7-7-7-7-5-5-5-5-8--8--8--0-|
   x x x x x x x x x x x x x  x   x   x x x x x x x x x x x x x  x  x  x

(Lead for verse:)
e|---------------10/12--------------12\10-------------------------10/12-|
B|---------------------------------------------------10/12--------------|
G|---------------------------------------------------------12---9-------|
D|----------------------------------------------------------------------|
A|----------------------------------------------------------------------|
E|----------------------------------------------------------------------|

e|---------------------------------|
B|---------------------------------|
G|---------------------------------|
D|-4-4-4-4-4-4-4-4-5-5-5-5-5-5-5-5-|
A|-4-4-4-4-4-4-4-4-5-5-5-5-5-5-5-5-|
E|-2-2-2-2-2-2-2-2-3-3-3-3-3-3-3-3-|

e|-----------------------------------------------------------------|
B|-----------------------------------------------------------------|
G|----9----------------------7-7------9----------------------7---7-|
D|----9--------------7--7--7-7-7------9--------------7--7--7-7-xx7-|
A|-7--7--------------7--7--7-5-5---7--7--------------7--7--7-5-xx5-|
E|-0-----5-7brb(8)-3-5--5--5-5-5-0-0-----5-7brb(8)-3-5--5--5---xx--|

e|----------------------------------------------------|
B|----------------------------------------------------|
G|-----9----------------------7-7---------------------|
D|-----9--------------7--7--7-7-7-7-5-5-5-5-5-5-5-5-4-|
A|-7-7-7--------------7--7--7-5-5-7-5-5-5-5-5-5-5-5-4-|
E|-0-0----5-7brb(8)-3-5--5--5-5-5-5-3-3-3-3-3-3-3-3-2-|

e|-----------------|
B|-----------------|
G|-----------------|
D|-2-----------(2)-|
A|-2-----------(2)-|
E|-0-----------(0)-|

e|-----------------------------------------------------------------|
B|-----------------------------------------------------------------|
G|-----------------------------------------------------------------|
D|---x-x-x-x--------x-x-x-x--------x-x-x-x-------------------------|
A|-9-x-x-x-x-9-9-99-x-x-x-x-9-9-97-x-x-x-x-7-7-77---------7--7-5-7-|
E|-7-x-x-x-x-7-7-77-x-x-x-x-7-7-75-x-x-x-x-5-5-55---------5--5-3-5-|

e|-----------------------------------------------------------------------|
B|-----------------------------------------------------------------------|
G|-----------------------------------------------------------------------|
D|---x-x-x-x--------x-x-x-x--------x-x-x-x-------------------------------|
A|-9-x-x-x-x-9-9-99-x-x-x-x-9-9-97-x-x-x-x-7-7-77---------7--7-7/9\7-5-7-|
E|-7-x-x-x-x-7-7-77-x-x-x-x-7-7-75-x-x-x-x-5-5-55---------5--5-5/7\5-3-5-|

e|-----------------------------------|
B|-----------------------------------|
G|-----------------------------------|
D|-----------------------------------|
A|-----5-----5---5------4-----4---4--|
E|-3333333333333333-2222222222222222-|

-| x3                           | x1                          |
e|------------------------------|-----------------------------|
B|------------------------------|-----------------------------|
G|------------------------------|-----------------------------|
D|------------------------------|--------------------5--4--3--|
A|------------------------------|--------------------5--4--3--|
E|-0-0-0-0-3--0-0-0-0-5--0-0-6--|-0-0-0-0-3--0-0-0-0-3--2--1--|

e|-----------------------------------------------------------------|
B|-----------------------------------------------------------------|
G|----9----------------------7-7------9----------------------7---7-|
D|----9--------------7--7--7-7-7------9--------------7--7--7-7-xx7-|
A|-7--7--------------7--7--7-5-5---7--7--------------7--7--7-5-xx5-|
E|-0-----5-7brb(8)-3-5--5--5-5-5-0-0-----5-7brb(8)-3-5--5--5---xx--|

e|------------------------------------------------------------------|
B|------------------------------------------------------------------|
G|-----9----------------------7-7-----------------------------------|
D|-----9--------------7--7--7-7-7-7-5-5-5-5-5-5-5-5-4-4-4-4-4-4-4-4-|
A|-7-7-7--------------7--7--7-5-5-7-5-5-5-5-5-5-5-5-4-4-4-4-4-4-4-4-|
E|-0-0----5-7brb(8)-3-5--5--5-5-5-5-3-3-3-3-3-3-3-3-2-2-2-2-2-2-2-2-|

e|-----------------------------------------------------------------|
B|-----------------------------------------------------------------|
G|----9----------------------7-7------9----------------------7---7-|
D|----9--------------7--7--7-7-7------9--------------7--7--7-7-xx7-|
A|-7--7--------------7--7--7-5-5---7--7--------------7--7--7-5-xx5-|
E|-0-----5-7brb(8)-3-5--5--5-5-5-0-0-----5-7brb(8)-3-5--5--5---xx--|

e|------------------------------------------------------------------|
B|------------------------------------------------------------------|
G|-----9----------------------7-7-----------------------------------|
D|-----9--------------7--7--7-7-7-7-5-5-5-5-5-5-5-5-4-4-4-4-4-4-4-4-|
A|-7-7-7--------------7--7--7-5-5-7-5-5-5-5-5-5-5-5-4-4-4-4-4-4-4-4-|
E|-0-0----5-7brb(8)-3-5--5--5-5-5-5-3-3-3-3-3-3-3-3-2-2-2-2-2-2-2-2-|

-| x3                           | x1                                   |
e|------------------------------|--------------------------------------|
B|------------------------------|--------------------------------------|
G|------------------------------|--------------------------------------|
D|------------------------------|--------------------5--4--3---5--4--3-|
A|------------------------------|--------------------5--4--3---5--4--3-|
E|-0-0-0-0-3--0-0-0-0-5--0-0-6--|-0-0-0-0-3--0-0-0-0-3--2--1---3--2--1-|

************************************

| /   slide up
| \   slide down
| h   hammer-on
| p   pull-off
| ~   vibrato
| +   harmonic
| x   Mute note
| b   Bend
| pb  Pre-bend
| br  Bend release
| pbr Pre-bend release
| brb Bend release bend

************************************
Tap to rate this tab
 
# A B C D E F G H I J K L M N O P Q R S T U V W X Y Z