Song name
# A B C D E F G H I J K L M N O P Q R S T U V W X Y Z

Sex Slaves - Thank God For Jack Daniels tab

Thank God for Jack Daniels
By: Sex Slaves
Album: Bite Your Tongue
Band Website:  sexslavesnyc.com OR  http://www.myspace.com/sexslaves
Tabbed By: Matt

Intro (This is the rhythm, listen for strumming)
e-------------------------------|
b-------------------------------|
G-------------------------------|
D---555-0-555-0-555-0-555-0-555-|
A---333---333---333---333---333-|
E-------------------------------|

Verse

e---------------        e--------------|
b---------------        b--------------|
G---------------        G--------------|
D---555-0-555-0- (4x)   D--------------| (4x)
A---333---333---        A-555----555---|
E---------------        E-333--0-333-0-|

"One thing I Have Learned Out on the Highway..."

Chorus (Again, just the chords. Piece together the rhythm, it's a pretty basic punk progression)

1.e---------------       2. e--------------|
  b---------------          b--------------|
  G---------------          G--------------|
  D---555-0-555-0-          D--------------|
  A---333---333---          A-555----555---|
  E---------------          E-333-0--333-0-|

3.e---------------        4. e--------------|
  b---------------           b--------------|
  G---------------           G--------------|
  D---555-0-555-0-           D-777--0-777---|
  A---333---333---           A-555----555---|
  E---------------           E--------------|

During Harmonica solo

e------------------|
b------------------|
G------------------|
D-5--------7-------|      (3x)
A-3----5---5-------|
E------3-----------|

e--------------------|
b--------------------|
G--------------------|
D-5-7777777777777777-|
A-3-5555555555555555-|
E--------------------|
(end harmonica, bass begins)

"But tonight I see him sitting right here with me..."

e---------------------|
b---------------------|
G---------------------|
D-5555555555555555--5-|
A-3333333333333333--3-|
E---------------------|

Repeat chorus


"...Is drinkin' my Jack Daniels for
free.."

e-0------------------|
b-0---------0-h2p0-3-|
G-0------------------|
D-0------------------|
A-5------------------|
E-3------------------|

Again, sorry for leaving you hangin' on the strumming patterns. You should be able to 
it out by just giving the recording a listen. LISTEN TO THE RECORDING OFTEN! Not just to 
the song, but because the Sex Slaves kick ass :) It's a fun song once you get the hang of it!Cheers! Enjoy!

PS: Feel free to comment it or make necessary edits
Tap to rate this tab
# A B C D E F G H I J K L M N O P Q R S T U V W X Y Z