Sex Wizard - Holy Fuck tab

Sex Wizard
Holy F**k

Halfstep down tunning
D#, G#, C#, F#, A#, D#

--------------------------------|
--------------------------------|
--------------------------------|
----------*7*7*7*7*7*7*7*7------|
--109-109-----------------------|
--8-7-8-7-----------------------|

--------------------------------|
--------------------------------|
--------------------------------|
----------*7*7*7*7*7*7*7*7------|
--109-109-----------------------|
--8-7-8-7-----------------------|

------------------|
------------------|
------------------|
------------------|
--109-7---109-12--|
--8-7-5---8-7-10--|

--------------------------------|
--------------------------------|
--------------------------------|
----------*7*7*7*7*7*7*7*7------|
--109-109-----------------------|
--8-7-8-7-----------------------|

--------------------------------|
--------------------------------|
--------------------------------|
----------*7*7*7*7*7*7*7*7------|
--109-109-----------------------|
--8-7-8-7-----------------------|

--------------------------------|
--------------------------------|
--------------------------------|
--------------------------------|
--109-7--109-12--109-7--109-109-|
--8-7-5--8-7-10--8-7-5--8-7-8-7-|

---------------------------------------|
---------------------------------------|
---------------------------------------|
---------------------------------------|
--109-7--109-12--109-7--109-109-109-7--|
--8-7-5--8-7-10--8-7-5--8-7-8-7-8-7-5--|

* = natural harmonic

http://www.myspace.com/chocchipsexwizard
Tap to rate this tab
 
# A B C D E F G H I J K L M N O P Q R S T U V W X Y Z