Sexion Dassaut - Desole tab

E-----------------|-----------------|-----------------|-----------------|
B--10-10-10-10--8-|----8-10---------|--10-10-10-10--8-|----8------------|
G-----------------|-10--------------|-----------------|-10---10---------|
D-----------------|-----------------|-----------------|-----------------|
A-----------------|-----------------|-----------------|-----------------|
E-----------------|-----------------|-----------------|-----------------|


E-----------------|-----------------|-----------------|-----------------|
B-----------------|-----------------|-----------------|-----------------|
G--7-7-7-7-7--10--|-9----7----------|--7-7-7-7-7--10--|-9-10-7----------|
D-----------------|---10------------|-----------------|-----------------|
A-----------------|-----------------|-----------------|-----------------|
E-----------------|-----------------|-----------------|-----------------|
Tap to rate this tab
 
# A B C D E F G H I J K L M N O P Q R S T U V W X Y Z