Song name
# A B C D E F G H I J K L M N O P Q R S T U V W X Y Z

Sha-na Na - Witch Doctor tab

witch doctor


the sha-na na


TRANSCRIBED BY RUDY GUZMAN


guzman_84@hotmail.com




           I told the witch doctor I was in love with you x2                                   
e:-------------------------------------------------------|
B:-------------------------------------------------------|
G:-------------------------------------------------------|
D:-------------------------------------------------------|
A:-----2-3-----------------------------------------------|
E:-3-5---------------------------------------------------|

           And then the witch doctor, he told me what to do
e:-------------------------------------------------------|
B:-------------------------------------------------------|
G:-------------------------------------------------------|
D:-------------------------------------------------------|
A:-----1-2-----------------------------------------------|
E:-3-5---------------------------------------------------|

           He said that
e:-------------------------------------------------------|
B:-------------------------------------------------------|
G:-------------------------------------------------------|
D:-------------------------------------------------------|
A:-----2-3-----------------------------------------------|
E:-3-5---------------------------------------------------|

  Ooo eee, ooo ah ah, ting tang, walla walla, bing bang
e:-------------------------------------------|
B:---4---4---5---5------4---4----------------|
G:---4---4---4---4------4---4------3---3-----|
D:---4---4-2-2-2-2------4---4------4---4-----|
A:-2-2-2-2------------2-2-2-2------4---4-----|
E:-------------------------------2-2-2-2-----|

  Ooo eee, ooo ah ah, ting tang, walla walla, bing bang
e:---------------------------------------------------|
B:---4---4---5---5---------------------------------4-|
G:---4---4---4---4----3--3--3--3---3--3------------4-|
D:---4---4-2-2-2-2----4--4--4--4---4--4------------4-|
A:-2-2-2-2------------4--4--4--4---4--4------------2-|
E:--------------------2--2--2--2---2--2--------------|


  Ooo eee, ooo ah ah, ting tang, walla walla, bing bang
e:-------------------------------------------|
B:---4---4---5---5------4---4----------------|
G:---4---4---4---4------4---4------3---3-----|
D:---4---4-2-2-2-2------4---4------4---4-----|
A:-2-2-2-2------------2-2-2-2------4---4-----|
E:-------------------------------2-2-2-2-----|


  Ooo eee, ooo ah ah, ting tang, walla walla, bing bang
e:---------------------------------------------------|
B:---4---4---5---5---------------------------------4-|
G:---4---4---4---4----3--3--3--3---3--3------------4-|
D:---4---4-2-2-2-2----4--4--4--4---4--4------------4-|
A:-2-2-2-2------------4--4--4--4---4--4------------2-|
E:--------------------2--2--2--2---2--2--------------|

  I told the witch doctor you didn't love me true
e:-------------------------------------------------|
B:----5-----5-----5-----5-----5-----5-----5-----5--|
G:----5-----5-----5-----5-----5-----5-----5-----5--|
D:----5-----5-----5-----5-----5-----5-----5-----5--|
A:-3--3--3--3--3--3--3--3--3--3--3--3--3--3--3--3--|
E:-------------------------------------------------|

I told the witch doctor you didn't love me nice
e:-------------------------------------------------|
B:----5-----5-----5-----5-----5-----5-----5-----5--|
G:----5-----5-----5-----5-----5-----5-----5-----5--|
D:----5-----5-----5-----5-----5-----5-----5-----5--|
A:-3--3--3--3--3--3--3--3--3--3--3--3--3--3--3--3--|
E:-------------------------------------------------|

   And then the witch doctor, he gave me this advice
e:---------------------------------------------------|
B:-------------------------------5--5--5--5--5--5--5-|
G:-4--4--4--4--4--4--4--4--4--4--5--5--5--5--5--5--5-|
D:-5--5--5--5--5--5--5--5--5--5--5--5--5--5--5--5--5-|
A:-5--5--5--5--5--5--5--5--5--5--3--3--3--3--3--3--3-|
E:-3--3--3--3--3--3--3--3--3--3----------------------|


  Ooo eee, ooo ah ah, ting tang, walla walla, bing bang
e:-------------------------------------------|
B:---6---6---7---7------6---6----------------|
G:---6---6---6---6------6---6------5---5-----|
D:---6---6-4-4-4-4------6---6------6---6-----|
A:-4-4-4-4------------4-4-4-4------6---6-----|
E:-------------------------------4-4-4-4-----|

  Ooo eee, ooo ah ah, ting tang, walla walla, bing bang
e:---------------------------------------------------|
B:---6---6---7---7---------------------------------6-|
G:---6---6---6---6----5--5--5--5---5--5------------6-|
D:---6---6-4-4-4-4----6--6--6--6---6--6------------6-|
A:-4-4-4-4------------6--6--6--6---6--6------------4-|
E:--------------------4--4--4--4---4--4--------------|


  Ooo eee, ooo ah ah, ting tang, walla walla, bing bang
e:-------------------------------------------|
B:---6---6---7---7------6---6----------------|
G:---6---6---6---6------6---6------5---5-----|
D:---6---6-4-4-4-4------6---6------6---6-----|
A:-4-4-4-4------------4-4-4-4------6---6-----|
E:-------------------------------4-4-4-4-----|


  Ooo eee, ooo ah ah, ting tang, walla walla, bing bang
e:---------------------------------------------------|
B:---6---6---7---7---------------------------------6-|
G:---6---6---6---6----5--5--5--5---5--5------------6-|
D:---6---6-4-4-4-4----6--6--6--6---6--6------------6-|
A:-4-4-4-4------------6--6--6--6---6--6------------4-|
E:--------------------4--4--4--4---4--4--------------|

  Now, you've been keeping love from me, just like you were a miser
e:--------------------------------------------------------------|
B:-6-6-6-6-6-6-6-6-6-6-6-6-6-6-6-6-6-6-6--5-5-5-5-5-5-5-5-5-5-5-|
G:-5-5-5-5-5-5-5-5-5-5-5-5-5-5-5-5-5-5-5--5-5-5-5-5-5-5-5-5-5-5-|
D:-3-3-3-3-3-3-3-3-3-3-3-3-3-3-3-3-3-3-3--5-5-5-5-5-5-5-5-5-5-5-|
A:----------------------------------------3-3-3-3-3-3-3-3-3-3-3-|
E:--------------------------------------------------------------|

  And I'll admit I wasn't very smart.
e:-3-3-3-3-3-3-3-3-3------------------|
B:-3-3-3-3-3-3-3-3-3--5-5-5-5---------|
G:-0-0-0-0-0-0-0-0-0--5-5-5-5---4-4-4-|
D:-0-0-0-0-0-0-0-0-0--5-5-5-5---3-3-3-|
A:--------------------3-3-3-3---3-3-3-|
E:----------------------------1-1-1-1-|

   So, I went out and found myself a guy that's so much wiser
e:--------------------------------------------------------------|
B:-6-6-6-6-6-6-6-6-6-6-6-6-6-6-6-6-6-6-6--5-5-5-5-5-5-5-5-5-5-5-|
G:-5-5-5-5-5-5-5-5-5-5-5-5-5-5-5-5-5-5-5--5-5-5-5-5-5-5-5-5-5-5-|
D:-3-3-3-3-3-3-3-3-3-3-3-3-3-3-3-3-3-3-3--5-5-5-5-5-5-5-5-5-5-5-|
A:----------------------------------------3-3-3-3-3-3-3-3-3-3-3-|
E:--------------------------------------------------------------|

  And he taught me the way to win your heart
e:-3-3-3-3-3-3-3-3-3------------------|
B:-3-3-3-3-3-3-3-3-3--5-5-5-5---------|
G:-0-0-0-0-0-0-0-0-0--5-5-5-5---------|
D:-0-0-0-0-0-0-0-0-0--5-5-5-5---------|
A:--------------------3-3-3-3---------|
E:------------------------------------|

e:---------|
B:---------|
G:---------|
D:---------|
A:-----2-3-|
E:-3-5-----|

  My friend the witch doctor, he taught me what to say
e:----2-----2-----2-----2-----2-----2-----2-----2--|
B:----3-----3-----3-----3-----3-----3-----3-----3--|
G:----2-----2-----2-----2-----2-----2-----2-----2--|
D:-0--0--0--0--0--0--0--0--0--0--0--0--0--0--0--0--|
A:-------------------------------------------------|
E:-------------------------------------------------|

   My friend the witch doctor, he taught me what to do
e:----2-----2-----2-----2-----2-----2-----2-----2--|
B:----3-----3-----3-----3-----3-----3-----3-----3--|
G:----2-----2-----2-----2-----2-----2-----2-----2--|
D:-0--0--0--0--0--0--0--0--0--0--0--0--0--0--0--0--|
A:-------------------------------------------------|
E:-------------------------------------------------|

   I know that you'll be mine when I say this to you
e:----------------------------------2-----2-----2----|
B:-2--2--2--2--2--2--2--2--2--2-----3-----3-----3----|
G:-2--2--2--2--2--2--2--2--2--2-----2-----2-----2----|
D:-2--2--2--2--2--2--2--2--2--2--0--0--0--0--0--0--0-|
A:-0--0--0--0--0--0--0--0--0--0----------------------|
E:---------------------------------------------------|


  Ooo eee, ooo ah ah, ting tang, walla walla, bing bang
e:---2---2---3---3------2---2---------------|
B:---3---3---3---3------3---3-------2---2---|
G:---2---2---0---0------2---2-------2---2---|
D:-0-0-0-0-0-0-0-0----0-0-0-0-------2---2---|
A:--------------------------------0-0-0-0---|
E:------------------------------------------|

  Ooo eee, ooo ah ah, ting tang, walla walla, bing bang
e:---2---2---3---3---------------------------------2-|
B:---3---3---3---3----2--2--2--2---2--2------------3-|
G:---2---2---0---0----2--2--2--2---2--2------------2-|
D:-0-0-0-0-0-0-0-0----2--2--2--2---2--2------------0-|
A:--------------------0--0--0--0---0--0--------------|
E:---------------------------------------------------|

  Ooo eee, ooo ah ah, ting tang, walla walla, bing bang
e:---2---2---3---3------2---2---------------|
B:---3---3---3---3------3---3-------2---2---|
G:---2---2---0---0------2---2-------2---2---|
D:-0-0-0-0-0-0-0-0----0-0-0-0-------2---2---|
A:--------------------------------0-0-0-0---|
E:------------------------------------------|

  Ooo eee, ooo ah ah, ting tang, walla walla, bing bang
e:---2---2---3---3---------------------------------2-|
B:---3---3---3---3----2--2--2--2---2--2------------3-|
G:---2---2---0---0----2--2--2--2---2--2------------2-|
D:-0-0-0-0-0-0-0-0----2--2--2--2---2--2------------0-|
A:--------------------0--0--0--0---0--0--------------|
E:---------------------------------------------------|

 Now, you've been keeping love from me, just like you
e:-3--3--3--3--3--3--3--3--3--3---------2-2-2-2-2-2-2-2-2-|
B:-3--3--3--3--3--3--3--3--3--3---------3-3-3-3-3-3-3-3-3-|
G:-0--0--0--0--0--0--0--0--0--0---------2-2-2-2-2-2-2-2-2-|
D:-0--0--0--0--0--0--0--0--0--0---------0-0-0-0-0-0-0-0-0-|
A:-2--2--2--2--2--2--2--2--2--2---------------------------|
E:-3--3--3--3--3--3--3--3--3--3---------------------------|

  And I'll admit I wasn't very smart
e:----------------------------2-2-2-2-2-2-2-3-3-3-3-|
B:-2--2--2--2--2--2--2--2--2--3-3-3-3-3-3-3-3-3-3-3-|
G:-2--2--2--2--2--2--2--2--2--2-2-2-2-2-2-2-0-0-0-0-|
D:-2--2--2--2--2--2--2--2--2--0-0-0-0-0-0-0-0-0-0-0-|
A:-0--0--0--0--0--0--0--0--0------------------------|
E:--------------------------------------------------|


So, I went out and found myself a guy that's so much wiser
e:-3--3--3--3--3--3--3--3--3--3---------2-2-2-2-2-2-2-2-2-|
B:-3--3--3--3--3--3--3--3--3--3---------3-3-3-3-3-3-3-3-3-|
G:-0--0--0--0--0--0--0--0--0--0---------2-2-2-2-2-2-2-2-2-|
D:-0--0--0--0--0--0--0--0--0--0---------0-0-0-0-0-0-0-0-0-|
A:-2--2--2--2--2--2--2--2--2--2---------------------------|
E:-3--3--3--3--3--3--3--3--3--3---------------------------|

And he taught me the way to win your heart
e:------------------------------------------|
B:----------------------------2-2-2-2-2-2-2-|
G:-1--1--1--1--1--1--1--1--1--2-2-2-2-2-2-2-|
D:-2--2--2--2--2--2--2--2--2--2-2-2-2-2-2-2-|
A:-2--2--2--2--2--2--2--2--2--0-0-0-0-0-0-0-|
E:-0--0--0--0--0--0--0--0--0----------------|

  My friend the witch doctor, he taught me what to say
e:----2-----2-----2-----2-----2-----2-----2-----2--|
B:----3-----3-----3-----3-----3-----3-----3-----3--|
G:----2-----2-----2-----2-----2-----2-----2-----2--|
D:-0--0--0--0--0--0--0--0--0--0--0--0--0--0--0--0--|
A:-------------------------------------------------|
E:-------------------------------------------------|

   My friend the witch doctor, he taught me what to do
e:----2-----2-----2-----2-----2-----2-----2-----2--|
B:----3-----3-----3-----3-----3-----3-----3-----3--|
G:----2-----2-----2-----2-----2-----2-----2-----2--|
D:-0--0--0--0--0--0--0--0--0--0--0--0--0--0--0--0--|
A:-------------------------------------------------|
E:-------------------------------------------------|

   I know that you'll be mine when I say this to you
e:----------------------------------2-----2-----2----|
B:-2--2--2--2--2--2--2--2--2--2-----3-----3-----3----|
G:-2--2--2--2--2--2--2--2--2--2-----2-----2-----2----|
D:-2--2--2--2--2--2--2--2--2--2--0--0--0--0--0--0--0-|
A:-0--0--0--0--0--0--0--0--0--0----------------------|
E:---------------------------------------------------|


  Ooo eee, ooo ah ah, ting tang, walla walla, bing bang
e:---2---2---3---3------2---2---------------|
B:---3---3---3---3------3---3-------2---2---|
G:---2---2---0---0------2---2-------2---2---|
D:-0-0-0-0-0-0-0-0----0-0-0-0-------2---2---|
A:--------------------------------0-0-0-0---|
E:------------------------------------------|

  Ooo eee, ooo ah ah, ting tang, walla walla, bing bang
e:---2---2---3---3---------------------------------2-|
B:---3---3---3---3----2--2--2--2---2--2------------3-|
G:---2---2---0---0----2--2--2--2---2--2------------2-|
D:-0-0-0-0-0-0-0-0----2--2--2--2---2--2------------0-|
A:--------------------0--0--0--0---0--0--------------|
E:---------------------------------------------------|

  Ooo eee, ooo ah ah, ting tang, walla walla, bing bang
e:---2---2---3---3------2---2---------------|
B:---3---3---3---3------3---3-------2---2---|
G:---2---2---0---0------2---2-------2---2---|
D:-0-0-0-0-0-0-0-0----0-0-0-0-------2---2---|
A:--------------------------------0-0-0-0---|
E:------------------------------------------|

  Ooo eee, ooo ah ah, ting tang, walla walla, bing bang
e:---2---2---3---3---------------------------------2-|
B:---3---3---3---3----2--2--2--2---2--2------------3-|
G:---2---2---0---0----2--2--2--2---2--2------------2-|
D:-0-0-0-0-0-0-0-0----2--2--2--2---2--2------------0-|
A:--------------------0--0--0--0---0--0--------------|
E:---------------------------------------------------|


  Ooo eee, ooo ah ah, ting tang, walla walla, bing bang
e:---2---2---3---3------2---2---------------|
B:---3---3---3---3------3---3-------2---2---|
G:---2---2---0---0------2---2-------2---2---|
D:-0-0-0-0-0-0-0-0----0-0-0-0-------2---2---|
A:--------------------------------0-0-0-0---|
E:------------------------------------------|

  Ooo eee, ooo ah ah, ting tang, walla walla, bing bang
e:---2---2---3---3---------------------------------2-|
B:---3---3---3---3----2--2--2--2---2--2------------3-|
G:---2---2---0---0----2--2--2--2---2--2------------2-|
D:-0-0-0-0-0-0-0-0----2--2--2--2---2--2------------0-|
A:--------------------0--0--0--0---0--0--------------|
E:---------------------------------------------------|
 
hillo son mex

20/01/13
Tap to rate this tab
 
# A B C D E F G H I J K L M N O P Q R S T U V W X Y Z