Song name
# A B C D E F G H I J K L M N O P Q R S T U V W X Y Z

Shachah - To The One chords

Highlighted       Show chord diagrams
    D      A      G    Dsus4     D5
e---2------0------X------3-------0---|
B---3------3------3------3-------3---|
G---2------3------0------2-------2---|
D---0------3------0------0-------0---|
A---X------0------2------X-------X---|
E---X------X------3------X-------X---|

Verse 1:
D        A   G
Eternity
                        D  D5 D Dsus4 D 
D5 D G
In the form of a human man
                  D     A  G
Perfect and blameless
                    D  D5 D Dsus4 D 
D5 D G
Behold, behold the Lamb
               D    A     G
Hope and forgiveness were placed
                      D  D5 D Dsus4 D 
D5 D G
In the palms of Your hands
      D                 A          G
So I sing to You, this song of dedication
    D       A      G
To my God, to the One

And so Iíll say

Chorus:
D                    A
To the One that was slain for this foundation
G                    A
To the One that was beat by the fists of man
D                A
To the One that took the stripes upon His back
G                 A
Lord I love You, Lord I Love You

Verse 2:
Redemption
In the blood that You shed for me
You conquered sin and death
And proclaimed the victory
True mediation allowing me
To worship pure and free
So I sing to You, this song of dedication
To my God, to the One
And so Iíll say

Chorus

Bridge:
e--10-10-10-10-10-10-10-10-17-17-17-15-15-15-15--|
B------------------------------------------------|
G------------------------------------------------|
D------------------------------------------------|
A------------------------------------------------|
E------------------------------------------------|

e--7-9-10-10-10-10-10-10-10-10-17-17-17-15-15-15-15--|
B----------------------------------------------------|
G----------------------------------------------------|
D----------------------------------------------------|
A----------------------------------------------------|
E----------------------------------------------------|

e--7-9-10-10-10-10-10-10-10-10-17-17-19-15-15-15-15--|
B----------------------------------------------------|
G----------------------------------------------------|
D----------------------------------------------------|
A----------------------------------------------------|
E----------------------------------------------------|

e--7-9-10-10-10-10-10-10-10-10-12-12-12-10--|
B-------------------------------------------|
G-------------------------------------------|
D-------------------------------------------|
A-------------------------------------------|
E-------------------------------------------|

Chorus X2
Tap to rate this tab
# A B C D E F G H I J K L M N O P Q R S T U V W X Y Z