Song name
# A B C D E F G H I J K L M N O P Q R S T U V W X Y Z

Shad - A Story No One Told tab

theres really only one riff played throughout the whole song as far as my ears can
tell... here it is:

e|-------------------------------------------------------------|
B|--------10---------------------3-----0---------------12------|
G|------9--------------------------------------------------12--|
D|---10-----------10----------0--------------------10----------|
A|-0-----------0------------2------------------12--------------|
E|------------------------3------------------------------------|

e|-------------------------------------|
B|-------------------------------------|
G|----------------------0---------0----|
D|------9------------3----------0------|
A|---10---10------3-----------2--------|
E|-0-----------1------------3----------|
Tap to rate this tab
 
# A B C D E F G H I J K L M N O P Q R S T U V W X Y Z