Song name
# A B C D E F G H I J K L M N O P Q R S T U V W X Y Z

Shad - I Heard You Had A Voice Like An Angel Psalm 137 tab

Its a pretty simple tab. You gotta rap along to make it interesting.
These three chords are played throughout.
-----------------|
--------3---3----|
--0-----2---2----|
--2-----4---0----|
--2-----2---0----|
--0--------------|
There is a second guitar that comes in at the 1:18 mark playing this riff:
------------------7-8-7----------------------|
-10-8-10--10-8-10--------10-8-10--8-10-8-----|
-----------------------------------------7---|
---------------------------------------------|
---------------------------------------------|
---------------------------------------------|

Let me know what you think. rob_trenk@msn.com
Tap to rate this tab
 
# A B C D E F G H I J K L M N O P Q R S T U V W X Y Z