Song name
# A B C D E F G H I J K L M N O P Q R S T U V W X Y Z

Shad - Rock To It tab

Here is the overall structure of this song.  There are variations here and there 
the song, but this will give you a basic framework.

See Shad at www.shadk.com

Intro

E---2-----------------------------------------|
B------4--------------------------------------|
G------------3--3-----3--3-----3/4--3---------|
D---------------------------------------------|
A---------------------------------------------|
E---0--0-----2--2-----4--4-----3/4--2---------|


Verse

E---2-----------------------------------------|
B------4--------------------------------------|
G------------3--3h4---3--3h4---3/4--3---------|
D---------------------------------------------|
A---------------------------------------------|
E---0--0-----2--2-----4--4-----3/4--2---------|
Tap to rate this tab
# A B C D E F G H I J K L M N O P Q R S T U V W X Y Z