Song name
# A B C D E F G H I J K L M N O P Q R S T U V W X Y Z

Shades Apart - Know It All tab

Shades Apart - Know It All (intro only)

Heard the song and picked up on the INTRO.  Might finish the rest later!

Tuning: 1/2 step down

Guitar 1 - distortion
eb|-0-----------------------------------|
Bb|-3-----------------------------------|
Gb|-2-----------------------------------|
Db|-0-----------------------------------|
Ab|-0---5*5*5*5*------5*----------------|
Db|-----5*5*5*5*---5*-------------------|

eb|------------------------------------|
Bb|------------------------------------|
Gb|------------------------------------|
Db|7-7-99-7-9-s-4-4-55-4-5-------------|
Ab|7-7-99-7-9-s-4-4-55-4-5-------------|
Db|5-5-77-5-7-s-2-2-33-2-3-------------|

eb|------------------------------------|
Bb|------------------------------------|
Gb|------------------------------------|
Db|7-7-99-7-9-s-4-4-55-7-6-------------|
Ab|7-7-99-7-9-s-4-4-55-5-4-------------|
Db|5-5-77-5-7-s-2-2-33-----------------|

eb|------------------------------------|
Bb|------------------------------------|
Gb|------------------------------------|
Db|7-7-99-7-9-s-4-4-4------------------|
Ab|7-7-99-7-9-s-4-4-4--5*5*5*5*----5*--|
Db|5-5-77-5-7-s-2-2-2--5*5*5*5*--5*----|
Tap to rate this tab
# A B C D E F G H I J K L M N O P Q R S T U V W X Y Z